  0
SECTION
  2
HEADER
  9
$DWGCODEPAGE
  3
dos932
  9
$EXTMIN
 10
4136.749
 20
7576.5309
  9
$EXTMAX
 10
82047.06
 20
57553.29
  9
$LIMMIN
 10
0
 20
0
  9
$LIMMAX
 10
84100
 20
59400
  9
$LTSCALE
 40
100
  0
ENDSEC
  0
SECTION
  2
TABLES
  0
TABLE
  2
APPID
 70
     1
  0
APPID
  2
BeDraw5
 70
     0
  0
ENDTAB
  0
TABLE
  2
VPORT
 70
     2
  0
VPORT
  2
*ACTIVE
 70
     0
 10
0
 20
0
 11
1
 21
1
 12
42050
 22
29700
 13
0
 23
0
 14
1
 24
1
 15
0
 25
0
 16
0
 26
0
 36
1
 17
1
 27
0
 37
0
 40
59400
 41
1.5
 42
50
 43
0
 44
0
 50
0
 51
0
 71
     0
 72
   100
 73
     1
 74
     1
 75
     0
 76
     0
 77
     0
 78
     0
  0
ENDTAB
  0
TABLE
  2
LTYPE
 70
     8
  0
LTYPE
  2
DOT
  3
点線
 70
    64
 72
    65
 73
     2
 40
2
 49
1
 49
-1
  0
LTYPE
  2
DASHED2
  3
破線
 70
    64
 72
    65
 73
     2
 40
3
 49
2
 49
-1
  0
LTYPE
  2
DASHED
  3
長破線
 70
    64
 72
    65
 73
     2
 40
5
 49
4
 49
-1
  0
LTYPE
  2
DASHDOT
  3
一点鎖線
 70
    64
 72
    65
 73
     4
 40
13
 49
10
 49
-1
 49
1
 49
-1
  0
LTYPE
  2
DASHDOTX2
  3
一点長鎖線
 70
    64
 72
    65
 73
     4
 40
23
 49
20
 49
-1
 49
1
 49
-1
  0
LTYPE
  2
DIVIDE
  3
二点鎖線
 70
    64
 72
    65
 73
     6
 40
20
 49
15
 49
-1
 49
1
 49
-1
 49
1
 49
-1
  0
LTYPE
  2
DIVIDEX2
  3
二点長鎖線
 70
    64
 72
    65
 73
     6
 40
35
 49
30
 49
-1
 49
1
 49
-1
 49
1
 49
-1
  0
LTYPE
  2
DASHDOT2
  3
一点短鎖線
 70
    64
 72
    65
 73
     4
 40
23
 49
20
 49
-1
 49
1
 49
-1
  0
LTYPE
  2
DIVIDE2
  3
二点短鎖線
 70
    64
 72
    65
 73
     6
 40
25
 49
20
 49
-1
 49
1
 49
-1
 49
1
 49
-1
  0
LTYPE
  2
BODRER
  3
一点二短鎖線
 70
    64
 72
    65
 73
     6
 40
44
 49
20
 49
-1
 49
20
 49
-1
 49
1
 49
-1
  0
LTYPE
  2
ACAD_ISO13W100
  3
二点二短鎖線
 70
    64
 72
    65
 73
     8
 40
46
 49
20
 49
-1
 49
20
 49
-1
 49
1
 49
-1
 49
1
 49
-1
  0
LTYPE
  2
ACAD_ISO06W100
  3
三点長鎖線
 70
    64
 72
    65
 73
     8
 40
67
 49
60
 49
-1
 49
1
 49
-1
 49
1
 49
-1
 49
1
 49
-1
  0
LTYPE
  2
ACAD_ISO14W100
  3
三点短鎖線
 70
    64
 72
    65
 73
     8
 40
27
 49
20
 49
-1
 49
1
 49
-1
 49
1
 49
-1
 49
1
 49
-1
  0
LTYPE
  2
ACAD_ISO15W100
  3
三点二短鎖線
 70
    64
 72
    65
 73
    10
 40
48
 49
20
 49
-1
 49
20
 49
-1
 49
1
 49
-1
 49
1
 49
-1
 49
1
 49
-1
  0
ENDTAB
  0
TABLE
  2
LAYER
 70
     1
  0
LAYER
  2
4-2
 70
     0
 62
     7
  6
CONTINUOUS
  0
ENDTAB
  0
TABLE
  2
STYLE
 70
     2
  0
STYLE
  2
STANDARD
 70
     0
 40
0
 41
1
 42
0
 50
0
 71
     0
  3
txt.shx
  4
extfont.shx
  0
STYLE
  2
TATEGAKI
 70
     4
 40
0
 41
1
 42
0
 50
0
 71
     0
  3
txt.shx
  4
extfont.shx
  0
ENDTAB
  0
ENDSEC
  0
SECTION
  2
BLOCKS
  0
ENDSEC
  0
SECTION
  2
ENTITIES
  0
LINE
  8
4-2
 62
     7
  6
CONTINUOUS
 10
8112.749
 20
34846.5431
 11
8538.349
 21
34846.5431
  0
LINE
  8
4-2
 62
     7
  6
CONTINUOUS
 10
15587.8996
 20
35912.7645
 11
15587.8996
 21
35352.7645
  0
LINE
  8
4-2
 62
     7
  6
CONTINUOUS
 10
15447.8996
 20
35912.7645
 11
15447.8996
 21
35352.7645
  0
LINE
  8
4-2
 62
     7
  6
CONTINUOUS
 10
15517.8996
 20
36431.9034
 11
15517.8996
 21
35842.7645
  0
LINE
  8
4-2
 62
     7
  6
CONTINUOUS
 10
15517.8997
 20
36431.9034
 11
15517.8996
 21
34846.5431
  0
LINE
  8
4-2
 62
     7
  6
CONTINUOUS
 10
17854.9562
 20
36431.9034
 11
15517.8997
 21
36431.9034
  0
LINE
  8
4-2
 62
     7
  6
CONTINUOUS
 10
30634.9562
 20
36431.9034
 11
28297.8997
 21
36431.9034
  0
LINE
  8
4-2
 62
     7
  6
CONTINUOUS
 10
28297.8997
 20
36431.9034
 11
28297.8996
 21
34846.5431
  0
LINE
  8
4-2
 62
     7
  6
CONTINUOUS
 10
28297.8996
 20
36431.9034
 11
28297.8996
 21
35842.7645
  0
LINE
  8
4-2
 62
     7
  6
CONTINUOUS
 10
28227.8996
 20
35912.7645
 11
28227.8996
 21
35352.7645
  0
LINE
  8
4-2
 62
     7
  6
CONTINUOUS
 10
28367.8996
 20
35912.7645
 11
28367.8996
 21
35352.7645
  0
LINE
  8
4-2
 62
     7
  6
CONTINUOUS
 10
40574.9562
 20
36431.9034
 11
38237.8997
 21
36431.9034
  0
LINE
  8
4-2
 62
     7
  6
CONTINUOUS
 10
38237.8997
 20
36431.9034
 11
38237.8996
 21
34846.5431
  0
LINE
  8
4-2
 62
     7
  6
CONTINUOUS
 10
38237.8996
 20
36431.9034
 11
38237.8996
 21
35842.7645
  0
LINE
  8
4-2
 62
     7
  6
CONTINUOUS
 10
38167.8996
 20
35912.7645
 11
38167.8996
 21
35352.7645
  0
LINE
  8
4-2
 62
     7
  6
CONTINUOUS
 10
38307.8996
 20
35912.7645
 11
38307.8996
 21
35352.7645
  0
LINE
  8
4-2
 62
     7
  6
CONTINUOUS
 10
49597.8996
 20
36431.9034
 11
49597.8996
 21
35842.7645
  0
LINE
  8
4-2
 62
     7
  6
CONTINUOUS
 10
49527.8996
 20
35912.7645
 11
49527.8996
 21
35352.7645
  0
LINE
  8
4-2
 62
     7
  6
CONTINUOUS
 10
49667.8996
 20
35912.7645
 11
49667.8996
 21
35352.7645
  0
LINE
  8
4-2
 62
     7
  6
CONTINUOUS
 10
52003.2611
 20
36431.9034
 11
49597.8997
 21
36431.9034
  0
LINE
  8
4-2
 62
     7
  6
CONTINUOUS
 10
38062.0114
 20
52476.5447
 11
35354.0414
 21
52476.5447
  0
LINE
  8
4-2
 62
     7
  6
CONTINUOUS
 10
30915.2063
 20
45219.3703
 11
33568.2504
 21
45219.3703
  0
LINE
  8
4-2
 62
     7
  6
CONTINUOUS
 10
33568.2504
 20
45219.3703
 11
33568.2504
 21
45787.3703
  0
LINE
  8
4-2
 62
     7
  6
CONTINUOUS
 10
10952.749
 20
26933.0641
 11
10952.749
 21
29063.0641
  0
LINE
  8
4-2
 62
     7
  6
CONTINUOUS
 10
6408.749
 20
26933.0641
 11
10952.749
 21
26933.0641
  0
LINE
  8
4-2
 62
     7
  6
CONTINUOUS
 10
5840.749
 20
26933.0641
 11
4136.749
 21
26933.0641
  0
LINE
  8
4-2
 62
     7
  6
CONTINUOUS
 10
5237.249
 20
26081.0641
 11
5308.249
 21
26081.0641
  0
LINE
  8
4-2
 62
     7
  6
CONTINUOUS
 10
5166.249
 20
26152.0641
 11
5379.249
 21
26152.0641
  0
LINE
  8
4-2
 62
     7
  6
CONTINUOUS
 10
5095.249
 20
26223.0641
 11
5450.249
 21
26223.0641
  0
LINE
  8
4-2
 62
     7
  6
CONTINUOUS
 10
5272.749
 20
27749.5641
 11
5272.749
 21
26223.0641
  0
LINE
  8
4-2
 62
     7
  6
CONTINUOUS
 10
4669.249
 20
26081.0641
 11
4740.249
 21
26081.0641
  0
LINE
  8
4-2
 62
     7
  6
CONTINUOUS
 10
4598.249
 20
26152.0641
 11
4811.249
 21
26152.0641
  0
LINE
  8
4-2
 62
     7
  6
CONTINUOUS
 10
4527.249
 20
26223.0641
 11
4882.249
 21
26223.0641
  0
LINE
  8
4-2
 62
     7
  6
CONTINUOUS
 10
4704.749
 20
27749.5641
 11
4704.749
 21
26223.0641
  0
LINE
  8
4-2
 62
     7
  6
CONTINUOUS
 10
6941.249
 20
26081.0641
 11
7012.249
 21
26081.0641
  0
LINE
  8
4-2
 62
     7
  6
CONTINUOUS
 10
6870.249
 20
26152.0641
 11
7083.249
 21
26152.0641
  0
LINE
  8
4-2
 62
     7
  6
CONTINUOUS
 10
6799.249
 20
26223.0641
 11
7154.249
 21
26223.0641
  0
LINE
  8
4-2
 62
     7
  6
CONTINUOUS
 10
6976.749
 20
27749.5641
 11
6976.749
 21
26223.0641
  0
LINE
  8
4-2
 62
     7
  6
CONTINUOUS
 10
7509.249
 20
26081.0641
 11
7580.249
 21
26081.0641
  0
LINE
  8
4-2
 62
     7
  6
CONTINUOUS
 10
7438.249
 20
26152.0641
 11
7651.249
 21
26152.0641
  0
LINE
  8
4-2
 62
     7
  6
CONTINUOUS
 10
7367.249
 20
26223.0641
 11
7722.249
 21
26223.0641
  0
LINE
  8
4-2
 62
     7
  6
CONTINUOUS
 10
7544.749
 20
27749.5641
 11
7544.749
 21
26223.0641
  0
LINE
  8
4-2
 62
     7
  6
CONTINUOUS
 10
8077.249
 20
26081.0641
 11
8148.249
 21
26081.0641
  0
LINE
  8
4-2
 62
     7
  6
CONTINUOUS
 10
8006.249
 20
26152.0641
 11
8219.249
 21
26152.0641
  0
LINE
  8
4-2
 62
     7
  6
CONTINUOUS
 10
7935.249
 20
26223.0641
 11
8290.249
 21
26223.0641
  0
LINE
  8
4-2
 62
     7
  6
CONTINUOUS
 10
8112.749
 20
27749.5641
 11
8112.749
 21
26223.0641
  0
LINE
  8
4-2
 62
     7
  6
CONTINUOUS
 10
8645.249
 20
26081.0641
 11
8716.249
 21
26081.0641
  0
LINE
  8
4-2
 62
     7
  6
CONTINUOUS
 10
8574.249
 20
26152.0641
 11
8787.249
 21
26152.0641
  0
LINE
  8
4-2
 62
     7
  6
CONTINUOUS
 10
8503.249
 20
26223.0641
 11
8858.249
 21
26223.0641
  0
LINE
  8
4-2
 62
     7
  6
CONTINUOUS
 10
8680.749
 20
27749.5641
 11
8680.749
 21
26223.0641
  0
LINE
  8
4-2
 62
     7
  6
CONTINUOUS
 10
9213.249
 20
26081.0641
 11
9284.249
 21
26081.0641
  0
LINE
  8
4-2
 62
     7
  6
CONTINUOUS
 10
9142.249
 20
26152.0641
 11
9355.249
 21
26152.0641
  0
LINE
  8
4-2
 62
     7
  6
CONTINUOUS
 10
9071.249
 20
26223.0641
 11
9426.249
 21
26223.0641
  0
LINE
  8
4-2
 62
     7
  6
CONTINUOUS
 10
9248.749
 20
27749.5641
 11
9248.749
 21
26223.0641
  0
LINE
  8
4-2
 62
     7
  6
CONTINUOUS
 10
9781.249
 20
26081.0641
 11
9852.249
 21
26081.0641
  0
LINE
  8
4-2
 62
     7
  6
CONTINUOUS
 10
9710.249
 20
26152.0641
 11
9923.249
 21
26152.0641
  0
LINE
  8
4-2
 62
     7
  6
CONTINUOUS
 10
9639.249
 20
26223.0641
 11
9994.249
 21
26223.0641
  0
LINE
  8
4-2
 62
     7
  6
CONTINUOUS
 10
9816.749
 20
27749.5641
 11
9816.749
 21
26223.0641
  0
LINE
  8
4-2
 62
     7
  6
CONTINUOUS
 10
10349.249
 20
26081.0641
 11
10420.249
 21
26081.0641
  0
LINE
  8
4-2
 62
     7
  6
CONTINUOUS
 10
10278.249
 20
26152.0641
 11
10491.249
 21
26152.0641
  0
LINE
  8
4-2
 62
     7
  6
CONTINUOUS
 10
10207.249
 20
26223.0641
 11
10562.249
 21
26223.0641
  0
LINE
  8
4-2
 62
     7
  6
CONTINUOUS
 10
10384.749
 20
27749.5641
 11
10384.749
 21
26223.0641
  0
LINE
  8
4-2
 62
     7
  6
CONTINUOUS
 10
4136.749
 20
26933.0641
 11
4136.749
 21
29063.0641
  0
LINE
  8
4-2
 62
     7
  6
CONTINUOUS
 10
5840.749
 20
26933.0641
 11
5840.749
 21
29063.0641
  0
LINE
  8
4-2
 62
     7
  6
CONTINUOUS
 10
5201.749
 20
28175.5641
 11
5201.749
 21
27820.5641
  0
LINE
  8
4-2
 62
     7
  6
CONTINUOUS
 10
5343.749
 20
28175.5641
 11
5343.749
 21
27820.5641
  0
LINE
  8
4-2
 62
     7
  6
CONTINUOUS
 10
4633.749
 20
28175.5641
 11
4633.749
 21
27820.5641
  0
LINE
  8
4-2
 62
     7
  6
CONTINUOUS
 10
4775.749
 20
28175.5641
 11
4775.749
 21
27820.5641
  0
LINE
  8
4-2
 62
     7
  6
CONTINUOUS
 10
6905.749
 20
28175.5641
 11
6905.749
 21
27820.5641
  0
LINE
  8
4-2
 62
     7
  6
CONTINUOUS
 10
7047.749
 20
28175.5641
 11
7047.749
 21
27820.5641
  0
LINE
  8
4-2
 62
     7
  6
CONTINUOUS
 10
6408.749
 20
26933.0641
 11
6408.749
 21
29063.0641
  0
LINE
  8
4-2
 62
     7
  6
CONTINUOUS
 10
7473.749
 20
28175.5641
 11
7473.749
 21
27820.5641
  0
LINE
  8
4-2
 62
     7
  6
CONTINUOUS
 10
7615.749
 20
28175.5641
 11
7615.749
 21
27820.5641
  0
LINE
  8
4-2
 62
     7
  6
CONTINUOUS
 10
8041.749
 20
28175.5641
 11
8041.749
 21
27820.5641
  0
LINE
  8
4-2
 62
     7
  6
CONTINUOUS
 10
8183.749
 20
28175.5641
 11
8183.749
 21
27820.5641
  0
LINE
  8
4-2
 62
     7
  6
CONTINUOUS
 10
8609.749
 20
28175.5641
 11
8609.749
 21
27820.5641
  0
LINE
  8
4-2
 62
     7
  6
CONTINUOUS
 10
8751.749
 20
28175.5641
 11
8751.749
 21
27820.5641
  0
LINE
  8
4-2
 62
     7
  6
CONTINUOUS
 10
9177.749
 20
28175.5641
 11
9177.749
 21
27820.5641
  0
LINE
  8
4-2
 62
     7
  6
CONTINUOUS
 10
9319.749
 20
28175.5641
 11
9319.749
 21
27820.5641
  0
LINE
  8
4-2
 62
     7
  6
CONTINUOUS
 10
9745.749
 20
28175.5641
 11
9745.749
 21
27820.5641
  0
LINE
  8
4-2
 62
     7
  6
CONTINUOUS
 10
9887.749
 20
28175.5641
 11
9887.749
 21
27820.5641
  0
LINE
  8
4-2
 62
     7
  6
CONTINUOUS
 10
10313.749
 20
28175.5641
 11
10313.749
 21
27820.5641
  0
LINE
  8
4-2
 62
     7
  6
CONTINUOUS
 10
10455.749
 20
28175.5641
 11
10455.749
 21
27820.5641
  0
LINE
  8
4-2
 62
     7
  6
CONTINUOUS
 10
5840.749
 20
29063.0641
 11
4136.749
 21
29063.0641
  0
LINE
  8
4-2
 62
     7
  6
CONTINUOUS
 10
10952.749
 20
29063.0641
 11
6408.749
 21
29063.0641
  0
LINE
  8
4-2
 62
     7
  6
CONTINUOUS
 10
8112.749
 20
28246.5641
 11
8112.749
 21
34846.5431
  0
LINE
  8
4-2
 62
     7
  6
CONTINUOUS
 10
30693.8254
 20
47474.4305
 11
30520.3112
 21
47300.9163
  0
LINE
  8
4-2
 62
     7
  6
CONTINUOUS
 10
30717.6717
 20
44307.1172
 11
30550.288
 21
44139.7334
  0
LINE
  8
4-2
 62
     7
  6
CONTINUOUS
 10
30550.288
 20
44139.7334
 11
28650.1237
 21
44139.7334
  0
LINE
  8
4-2
 62
     7
  6
CONTINUOUS
 10
28650.1237
 20
48627.3703
 11
28650.1237
 21
42166.37
  0
LINE
  8
4-2
 62
     7
  6
CONTINUOUS
 10
7552.349
 20
42166.37
 11
7552.349
 21
28246.5641
  0
LINE
  8
4-2
 62
     7
  6
CONTINUOUS
 10
28650.1237
 20
42166.37
 11
7552.349
 21
42166.37
  0
LINE
  8
4-2
 62
     7
  6
CONTINUOUS
 10
4712.349
 20
54243.9088
 11
4712.349
 21
28246.5641
  0
LINE
  8
4-2
 62
     7
  6
CONTINUOUS
 10
30234.9563
 20
54243.9088
 11
4712.349
 21
54243.9088
  0
LINE
  8
4-2
 62
     7
  6
CONTINUOUS
 10
5280.349
 20
52143.9088
 11
5280.349
 21
28246.5641
  0
LINE
  8
4-2
 62
     7
  6
CONTINUOUS
 10
30234.9562
 20
52143.9088
 11
5280.349
 21
52143.9088
  0
LINE
  8
4-2
 62
     7
  6
CONTINUOUS
 10
17832.2598
 20
38582.4358
 11
17473.9928
 21
38224.1687
  0
LINE
  8
4-2
 62
     7
  6
CONTINUOUS
 10
17480.0141
 20
38230.19
 11
17480.0141
 21
37908.9081
  0
LINE
  8
4-2
 62
     7
  6
CONTINUOUS
 10
17480.0141
 20
37908.9081
 11
17480.0141
 21
37508.8369
  0
LINE
  8
4-2
 62
     7
  6
CONTINUOUS
 10
17480.0141
 20
37508.8369
 11
17809.1492
 21
37508.8369
  0
LINE
  8
4-2
 62
     7
  6
CONTINUOUS
 10
30254.1449
 20
37508.8369
 11
30583.28
 21
37508.8369
  0
LINE
  8
4-2
 62
     7
  6
CONTINUOUS
 10
30254.1449
 20
37908.9081
 11
30254.1449
 21
37508.8369
  0
LINE
  8
4-2
 62
     7
  6
CONTINUOUS
 10
30254.1449
 20
38230.19
 11
30254.1449
 21
37908.9081
  0
LINE
  8
4-2
 62
     7
  6
CONTINUOUS
 10
30606.3906
 20
38582.4358
 11
30248.1236
 21
38224.1687
  0
LINE
  8
4-2
 62
     7
  6
CONTINUOUS
 10
40216.229
 20
37508.8369
 11
40545.3641
 21
37508.8369
  0
LINE
  8
4-2
 62
     7
  6
CONTINUOUS
 10
40216.229
 20
37908.9081
 11
40216.229
 21
37508.8369
  0
LINE
  8
4-2
 62
     7
  6
CONTINUOUS
 10
40216.229
 20
38230.19
 11
40216.229
 21
37908.9081
  0
LINE
  8
4-2
 62
     7
  6
CONTINUOUS
 10
40568.4747
 20
38582.4358
 11
40210.2077
 21
38224.1687
  0
LINE
  8
4-2
 62
     7
  6
CONTINUOUS
 10
51555.6709
 20
37508.8369
 11
51884.806
 21
37508.8369
  0
LINE
  8
4-2
 62
     7
  6
CONTINUOUS
 10
51555.6709
 20
37908.9081
 11
51555.6709
 21
37508.8369
  0
LINE
  8
4-2
 62
     7
  6
CONTINUOUS
 10
51555.6709
 20
38230.19
 11
51555.6709
 21
37908.9081
  0
LINE
  8
4-2
 62
     7
  6
CONTINUOUS
 10
51907.9166
 20
38582.4358
 11
51549.6496
 21
38224.1687
  0
LINE
  8
4-2
 62
     7
  6
CONTINUOUS
 10
30909.9563
 20
37908.9081
 11
40699.9563
 21
37908.9081
  0
LINE
  8
4-2
 62
     7
  6
CONTINUOUS
 10
18129.9563
 20
37908.9081
 11
30759.9563
 21
37908.9081
  0
LINE
  8
4-2
 62
     7
  6
CONTINUOUS
 10
28650.1237
 20
47300.9163
 11
30068.0685
 21
47300.9163
  0
LINE
  8
4-2
 62
     7
  6
CONTINUOUS
 10
30218.0685
 20
47300.9163
 11
30520.3112
 21
47300.9163
  0
LINE
  8
4-2
 62
     7
  6
CONTINUOUS
 10
7552.349
 20
37908.9081
 11
8538.349
 21
37908.9081
  0
LINE
  8
4-2
 62
     7
  6
CONTINUOUS
 10
8838.349
 20
37908.9081
 11
17979.9563
 21
37908.9081
  0
LINE
  8
4-2
 62
     7
  6
CONTINUOUS
 10
8688.349
 20
41196.8862
 11
8688.349
 21
28246.5641
  0
LINE
  8
4-2
 62
     7
  6
CONTINUOUS
 10
31165.0126
 20
42948.715
 11
31165.0126
 21
41196.8862
  0
LINE
  8
4-2
 62
     7
  6
CONTINUOUS
 10
30909.9563
 20
48446.2343
 11
33681.3197
 21
48446.2342
  0
LINE
  8
4-2
 62
     7
  6
CONTINUOUS
 10
28725.1237
 20
48446.2343
 11
30759.9563
 21
48446.2343
  0
LINE
  8
4-2
 62
     7
  6
CONTINUOUS
 10
27703.0404
 20
42085.5487
 11
27703.0404
 21
41196.8862
  0
LINE
  8
4-2
 62
     7
  6
CONTINUOUS
 10
30218.0685
 20
45219.3703
 11
30761.7263
 21
45219.3703
  0
LINE
  8
4-2
 62
     7
  6
CONTINUOUS
 10
27703.0405
 20
45219.3703
 11
28575.1237
 21
45219.3703
  0
LINE
  8
4-2
 62
     7
  6
CONTINUOUS
 10
28725.1237
 20
45219.3703
 11
30068.0685
 21
45219.3703
  0
LINE
  8
4-2
 62
     7
  6
CONTINUOUS
 10
27703.0405
 20
48446.2344
 11
27703.0404
 21
42235.5487
  0
LINE
  8
4-2
 62
     7
  6
CONTINUOUS
 10
27703.0405
 20
48446.2344
 11
28575.1237
 21
48446.2343
  0
LINE
  8
4-2
 62
     7
  6
CONTINUOUS
 10
8688.349
 20
41196.8862
 11
30759.9563
 21
41196.8862
  0
LINE
  8
4-2
 62
     7
  6
CONTINUOUS
 10
30909.9563
 20
41196.8862
 11
31165.0126
 21
41196.8862
  0
LINE
  8
4-2
 62
     7
  6
CONTINUOUS
 10
8838.349
 20
34846.5431
 11
16072.8996
 21
34846.5431
  0
LINE
  8
4-2
 62
     7
  6
CONTINUOUS
 10
16222.8996
 20
34846.5431
 11
17979.9562
 21
34846.5431
  0
LINE
  8
4-2
 62
     7
  6
CONTINUOUS
 10
18129.9562
 20
34846.5431
 11
28858.2698
 21
34846.5431
  0
LINE
  8
4-2
 62
     7
  6
CONTINUOUS
 10
29008.2698
 20
34846.5431
 11
30759.9563
 21
34846.5431
  0
LINE
  8
4-2
 62
     7
  6
CONTINUOUS
 10
30909.9563
 20
34846.5431
 11
38792.8996
 21
34846.5431
  0
LINE
  8
4-2
 62
     7
  6
CONTINUOUS
 10
38942.8996
 20
34846.5431
 11
40706.0139
 21
34846.5431
  0
LINE
  8
4-2
 62
     7
  6
CONTINUOUS
 10
40849.9563
 20
37908.9081
 11
51555.6709
 21
37908.9081
  0
LINE
  8
4-2
 62
     7
  6
CONTINUOUS
 10
40856.0139
 20
34846.5431
 11
49597.8997
 21
34846.5431
  0
LINE
  8
4-2
 62
     7
  6
CONTINUOUS
 10
49597.8997
 20
36431.9034
 11
49597.8997
 21
34846.5431
  0
LINE
  8
4-2
 62
     5
  6
CONTINUOUS
 10
75628.5279
 20
39908.7702
 11
75610.2079
 21
39908.7702
  0
LINE
  8
4-2
 62
     5
  6
CONTINUOUS
 10
75637.7279
 20
39892.7702
 11
75601.0079
 21
39892.7702
  0
LINE
  8
4-2
 62
     5
  6
CONTINUOUS
 10
75647.0079
 20
39876.7702
 11
75591.7279
 21
39876.7702
  0
LINE
  8
4-2
 62
     5
  6
CONTINUOUS
 10
75656.2079
 20
39860.7702
 11
75582.5279
 21
39860.7702
  0
LINE
  8
4-2
 62
     5
  6
CONTINUOUS
 10
75665.4879
 20
39844.7702
 11
75573.2479
 21
39844.7702
  0
LINE
  8
4-2
 62
     5
  6
CONTINUOUS
 10
75674.6879
 20
39828.7702
 11
75564.0479
 21
39828.7702
  0
LINE
  8
4-2
 62
     5
  6
CONTINUOUS
 10
75683.9679
 20
39812.7702
 11
75554.7679
 21
39812.7702
  0
LINE
  8
4-2
 62
     5
  6
CONTINUOUS
 10
75693.1679
 20
39796.7702
 11
75545.5679
 21
39796.7702
  0
LINE
  8
4-2
 62
     5
  6
CONTINUOUS
 10
75702.4479
 20
39780.7702
 11
75536.2879
 21
39780.7702
  0
LINE
  8
4-2
 62
     5
  6
CONTINUOUS
 10
75711.6479
 20
39764.7702
 11
75527.0879
 21
39764.7702
  0
LINE
  8
4-2
 62
     5
  6
CONTINUOUS
 10
75720.9279
 20
39748.7702
 11
75517.8879
 21
39748.7702
  0
LINE
  8
4-2
 62
     5
  6
CONTINUOUS
 10
75730.1279
 20
39732.7702
 11
75508.6079
 21
39732.7702
  0
LINE
  8
4-2
 62
     5
  6
CONTINUOUS
 10
75499.4079
 20
39716.7702
 11
75619.4079
 21
39924.6102
  0
LINE
  8
4-2
 62
     5
  6
CONTINUOUS
 10
75619.4079
 20
39924.6102
 11
75739.4079
 21
39716.7702
  0
LINE
  8
4-2
 62
     5
  6
CONTINUOUS
 10
75739.4079
 20
39716.7702
 11
75499.4079
 21
39716.7702
  0
LINE
  8
4-2
 62
     5
  6
CONTINUOUS
 10
35314.3054
 20
45232.4151
 11
35299.6494
 21
45232.4151
  0
LINE
  8
4-2
 62
     5
  6
CONTINUOUS
 10
35321.6654
 20
45219.6151
 11
35292.2894
 21
45219.6151
  0
LINE
  8
4-2
 62
     5
  6
CONTINUOUS
 10
35329.0894
 20
45206.8151
 11
35284.8654
 21
45206.8151
  0
LINE
  8
4-2
 62
     5
  6
CONTINUOUS
 10
35336.4494
 20
45194.0151
 11
35277.5054
 21
45194.0151
  0
LINE
  8
4-2
 62
     5
  6
CONTINUOUS
 10
35343.8734
 20
45181.2151
 11
35270.0814
 21
45181.2151
  0
LINE
  8
4-2
 62
     5
  6
CONTINUOUS
 10
35351.2334
 20
45168.4151
 11
35262.7214
 21
45168.4151
  0
LINE
  8
4-2
 62
     5
  6
CONTINUOUS
 10
35358.6574
 20
45155.6151
 11
35255.2974
 21
45155.6151
  0
LINE
  8
4-2
 62
     5
  6
CONTINUOUS
 10
35366.0174
 20
45142.8151
 11
35247.9374
 21
45142.8151
  0
LINE
  8
4-2
 62
     5
  6
CONTINUOUS
 10
35373.4414
 20
45130.0151
 11
35240.5134
 21
45130.0151
  0
LINE
  8
4-2
 62
     5
  6
CONTINUOUS
 10
35380.8014
 20
45117.2151
 11
35233.1534
 21
45117.2151
  0
LINE
  8
4-2
 62
     5
  6
CONTINUOUS
 10
35388.2254
 20
45104.4151
 11
35225.7934
 21
45104.4151
  0
LINE
  8
4-2
 62
     5
  6
CONTINUOUS
 10
35395.5854
 20
45091.6151
 11
35218.3694
 21
45091.6151
  0
LINE
  8
4-2
 62
     5
  6
CONTINUOUS
 10
35211.0094
 20
45078.8151
 11
35307.0094
 21
45245.0871
  0
LINE
  8
4-2
 62
     5
  6
CONTINUOUS
 10
35307.0094
 20
45245.0871
 11
35403.0094
 21
45078.8151
  0
LINE
  8
4-2
 62
     5
  6
CONTINUOUS
 10
35403.0094
 20
45078.8151
 11
35211.0094
 21
45078.8151
  0
LINE
  8
4-2
 62
     5
  6
CONTINUOUS
 10
33562.9349
 20
43041.0049
 11
33370.9349
 21
43041.0049
  0
LINE
  8
4-2
 62
     5
  6
CONTINUOUS
 10
33466.9349
 20
43207.2769
 11
33562.9349
 21
43041.0049
  0
LINE
  8
4-2
 62
     5
  6
CONTINUOUS
 10
33370.9349
 20
43041.0049
 11
33466.9349
 21
43207.2769
  0
LINE
  8
4-2
 62
     5
  6
CONTINUOUS
 10
33555.5109
 20
43053.8049
 11
33378.2949
 21
43053.8049
  0
LINE
  8
4-2
 62
     5
  6
CONTINUOUS
 10
33548.1509
 20
43066.6049
 11
33385.7189
 21
43066.6049
  0
LINE
  8
4-2
 62
     5
  6
CONTINUOUS
 10
33540.7269
 20
43079.4049
 11
33393.0789
 21
43079.4049
  0
LINE
  8
4-2
 62
     5
  6
CONTINUOUS
 10
33533.3669
 20
43092.2049
 11
33400.4389
 21
43092.2049
  0
LINE
  8
4-2
 62
     5
  6
CONTINUOUS
 10
33525.9429
 20
43105.0049
 11
33407.8629
 21
43105.0049
  0
LINE
  8
4-2
 62
     5
  6
CONTINUOUS
 10
33518.5829
 20
43117.8049
 11
33415.2229
 21
43117.8049
  0
LINE
  8
4-2
 62
     5
  6
CONTINUOUS
 10
33511.1589
 20
43130.6049
 11
33422.6469
 21
43130.6049
  0
LINE
  8
4-2
 62
     5
  6
CONTINUOUS
 10
33503.7989
 20
43143.4049
 11
33430.0069
 21
43143.4049
  0
LINE
  8
4-2
 62
     5
  6
CONTINUOUS
 10
33496.3749
 20
43156.2049
 11
33437.4309
 21
43156.2049
  0
LINE
  8
4-2
 62
     5
  6
CONTINUOUS
 10
33489.0149
 20
43169.0049
 11
33444.7909
 21
43169.0049
  0
LINE
  8
4-2
 62
     5
  6
CONTINUOUS
 10
33481.5909
 20
43181.8049
 11
33452.2149
 21
43181.8049
  0
LINE
  8
4-2
 62
     5
  6
CONTINUOUS
 10
33474.2309
 20
43194.6049
 11
33459.5749
 21
43194.6049
  0
LINE
  8
4-2
 62
     5
  6
CONTINUOUS
 10
18646.0508
 20
39416.6519
 11
18454.0508
 21
39416.6519
  0
LINE
  8
4-2
 62
     5
  6
CONTINUOUS
 10
18550.0508
 20
39582.9239
 11
18646.0508
 21
39416.6519
  0
LINE
  8
4-2
 62
     5
  6
CONTINUOUS
 10
18454.0508
 20
39416.6519
 11
18550.0508
 21
39582.9239
  0
LINE
  8
4-2
 62
     5
  6
CONTINUOUS
 10
18638.6268
 20
39429.4519
 11
18461.4108
 21
39429.4519
  0
LINE
  8
4-2
 62
     5
  6
CONTINUOUS
 10
18631.2668
 20
39442.2519
 11
18468.8348
 21
39442.2519
  0
LINE
  8
4-2
 62
     5
  6
CONTINUOUS
 10
18623.8428
 20
39455.0519
 11
18476.1948
 21
39455.0519
  0
LINE
  8
4-2
 62
     5
  6
CONTINUOUS
 10
18616.4828
 20
39467.8519
 11
18483.5548
 21
39467.8519
  0
LINE
  8
4-2
 62
     5
  6
CONTINUOUS
 10
18609.0588
 20
39480.6519
 11
18490.9788
 21
39480.6519
  0
LINE
  8
4-2
 62
     5
  6
CONTINUOUS
 10
18601.6988
 20
39493.4519
 11
18498.3388
 21
39493.4519
  0
LINE
  8
4-2
 62
     5
  6
CONTINUOUS
 10
18594.2748
 20
39506.2519
 11
18505.7628
 21
39506.2519
  0
LINE
  8
4-2
 62
     5
  6
CONTINUOUS
 10
18586.9148
 20
39519.0519
 11
18513.1228
 21
39519.0519
  0
LINE
  8
4-2
 62
     5
  6
CONTINUOUS
 10
18579.4908
 20
39531.8519
 11
18520.5468
 21
39531.8519
  0
LINE
  8
4-2
 62
     5
  6
CONTINUOUS
 10
18572.1308
 20
39544.6519
 11
18527.9068
 21
39544.6519
  0
LINE
  8
4-2
 62
     5
  6
CONTINUOUS
 10
18564.7068
 20
39557.4519
 11
18535.3308
 21
39557.4519
  0
LINE
  8
4-2
 62
     5
  6
CONTINUOUS
 10
18557.3468
 20
39570.2519
 11
18542.6908
 21
39570.2519
  0
LINE
  8
4-2
 62
     5
  6
CONTINUOUS
 10
31339.4949
 20
39570.2519
 11
31324.8389
 21
39570.2519
  0
LINE
  8
4-2
 62
     5
  6
CONTINUOUS
 10
31346.8549
 20
39557.4519
 11
31317.4789
 21
39557.4519
  0
LINE
  8
4-2
 62
     5
  6
CONTINUOUS
 10
31354.2789
 20
39544.6519
 11
31310.0549
 21
39544.6519
  0
LINE
  8
4-2
 62
     5
  6
CONTINUOUS
 10
31361.6389
 20
39531.8519
 11
31302.6949
 21
39531.8519
  0
LINE
  8
4-2
 62
     5
  6
CONTINUOUS
 10
31369.0629
 20
39519.0519
 11
31295.2709
 21
39519.0519
  0
LINE
  8
4-2
 62
     5
  6
CONTINUOUS
 10
31376.4229
 20
39506.2519
 11
31287.9109
 21
39506.2519
  0
LINE
  8
4-2
 62
     5
  6
CONTINUOUS
 10
31383.8469
 20
39493.4519
 11
31280.4869
 21
39493.4519
  0
LINE
  8
4-2
 62
     5
  6
CONTINUOUS
 10
31391.2069
 20
39480.6519
 11
31273.1269
 21
39480.6519
  0
LINE
  8
4-2
 62
     5
  6
CONTINUOUS
 10
31398.6309
 20
39467.8519
 11
31265.7029
 21
39467.8519
  0
LINE
  8
4-2
 62
     5
  6
CONTINUOUS
 10
31405.9909
 20
39455.0519
 11
31258.3429
 21
39455.0519
  0
LINE
  8
4-2
 62
     5
  6
CONTINUOUS
 10
31413.4149
 20
39442.2519
 11
31250.9829
 21
39442.2519
  0
LINE
  8
4-2
 62
     5
  6
CONTINUOUS
 10
31420.7749
 20
39429.4519
 11
31243.5589
 21
39429.4519
  0
LINE
  8
4-2
 62
     5
  6
CONTINUOUS
 10
31236.1989
 20
39416.6519
 11
31332.1989
 21
39582.9239
  0
LINE
  8
4-2
 62
     5
  6
CONTINUOUS
 10
31332.1989
 20
39582.9239
 11
31428.1989
 21
39416.6519
  0
LINE
  8
4-2
 62
     5
  6
CONTINUOUS
 10
31428.1989
 20
39416.6519
 11
31236.1989
 21
39416.6519
  0
LINE
  8
4-2
 62
     5
  6
CONTINUOUS
 10
41329.8364
 20
39570.2519
 11
41315.1804
 21
39570.2519
  0
LINE
  8
4-2
 62
     5
  6
CONTINUOUS
 10
41337.1964
 20
39557.4519
 11
41307.8204
 21
39557.4519
  0
LINE
  8
4-2
 62
     5
  6
CONTINUOUS
 10
41344.6204
 20
39544.6519
 11
41300.3964
 21
39544.6519
  0
LINE
  8
4-2
 62
     5
  6
CONTINUOUS
 10
41351.9804
 20
39531.8519
 11
41293.0364
 21
39531.8519
  0
LINE
  8
4-2
 62
     5
  6
CONTINUOUS
 10
41359.4044
 20
39519.0519
 11
41285.6124
 21
39519.0519
  0
LINE
  8
4-2
 62
     5
  6
CONTINUOUS
 10
41366.7644
 20
39506.2519
 11
41278.2524
 21
39506.2519
  0
LINE
  8
4-2
 62
     5
  6
CONTINUOUS
 10
41374.1884
 20
39493.4519
 11
41270.8284
 21
39493.4519
  0
LINE
  8
4-2
 62
     5
  6
CONTINUOUS
 10
41381.5484
 20
39480.6519
 11
41263.4684
 21
39480.6519
  0
LINE
  8
4-2
 62
     5
  6
CONTINUOUS
 10
41388.9724
 20
39467.8519
 11
41256.0444
 21
39467.8519
  0
LINE
  8
4-2
 62
     5
  6
CONTINUOUS
 10
41396.3324
 20
39455.0519
 11
41248.6844
 21
39455.0519
  0
LINE
  8
4-2
 62
     5
  6
CONTINUOUS
 10
41403.7564
 20
39442.2519
 11
41241.3244
 21
39442.2519
  0
LINE
  8
4-2
 62
     5
  6
CONTINUOUS
 10
41411.1164
 20
39429.4519
 11
41233.9004
 21
39429.4519
  0
LINE
  8
4-2
 62
     5
  6
CONTINUOUS
 10
41226.5404
 20
39416.6519
 11
41322.5404
 21
39582.9239
  0
LINE
  8
4-2
 62
     5
  6
CONTINUOUS
 10
41322.5404
 20
39582.9239
 11
41418.5404
 21
39416.6519
  0
LINE
  8
4-2
 62
     5
  6
CONTINUOUS
 10
41418.5404
 20
39416.6519
 11
41226.5404
 21
39416.6519
  0
LINE
  8
4-2
 62
     5
  6
CONTINUOUS
 10
52647.0481
 20
39570.2519
 11
52632.3921
 21
39570.2519
  0
LINE
  8
4-2
 62
     5
  6
CONTINUOUS
 10
52654.4081
 20
39557.4519
 11
52625.0321
 21
39557.4519
  0
LINE
  8
4-2
 62
     5
  6
CONTINUOUS
 10
52661.8321
 20
39544.6519
 11
52617.6081
 21
39544.6519
  0
LINE
  8
4-2
 62
     5
  6
CONTINUOUS
 10
52669.1921
 20
39531.8519
 11
52610.2481
 21
39531.8519
  0
LINE
  8
4-2
 62
     5
  6
CONTINUOUS
 10
52676.6161
 20
39519.0519
 11
52602.8241
 21
39519.0519
  0
LINE
  8
4-2
 62
     5
  6
CONTINUOUS
 10
52683.9761
 20
39506.2519
 11
52595.4641
 21
39506.2519
  0
LINE
  8
4-2
 62
     5
  6
CONTINUOUS
 10
52691.4001
 20
39493.4519
 11
52588.0401
 21
39493.4519
  0
LINE
  8
4-2
 62
     5
  6
CONTINUOUS
 10
52698.7601
 20
39480.6519
 11
52580.6801
 21
39480.6519
  0
LINE
  8
4-2
 62
     5
  6
CONTINUOUS
 10
52706.1841
 20
39467.8519
 11
52573.2561
 21
39467.8519
  0
LINE
  8
4-2
 62
     5
  6
CONTINUOUS
 10
52713.5441
 20
39455.0519
 11
52565.8961
 21
39455.0519
  0
LINE
  8
4-2
 62
     5
  6
CONTINUOUS
 10
52720.9681
 20
39442.2519
 11
52558.5361
 21
39442.2519
  0
LINE
  8
4-2
 62
     5
  6
CONTINUOUS
 10
52728.3281
 20
39429.4519
 11
52551.1121
 21
39429.4519
  0
LINE
  8
4-2
 62
     5
  6
CONTINUOUS
 10
52543.7521
 20
39416.6519
 11
52639.7521
 21
39582.9239
  0
LINE
  8
4-2
 62
     5
  6
CONTINUOUS
 10
52639.7521
 20
39582.9239
 11
52735.7521
 21
39416.6519
  0
LINE
  8
4-2
 62
     5
  6
CONTINUOUS
 10
52735.7521
 20
39416.6519
 11
52543.7521
 21
39416.6519
  0
LINE
  8
4-2
 62
     5
  6
CONTINUOUS
 10
21239.6858
 20
32220.3638
 11
21225.0298
 21
32220.3638
  0
LINE
  8
4-2
 62
     5
  6
CONTINUOUS
 10
21247.0458
 20
32207.5638
 11
21217.6698
 21
32207.5638
  0
LINE
  8
4-2
 62
     5
  6
CONTINUOUS
 10
21254.4698
 20
32194.7638
 11
21210.2458
 21
32194.7638
  0
LINE
  8
4-2
 62
     5
  6
CONTINUOUS
 10
21261.8298
 20
32181.9638
 11
21202.8858
 21
32181.9638
  0
LINE
  8
4-2
 62
     5
  6
CONTINUOUS
 10
21269.2538
 20
32169.1638
 11
21195.4618
 21
32169.1638
  0
LINE
  8
4-2
 62
     5
  6
CONTINUOUS
 10
21276.6138
 20
32156.3638
 11
21188.1018
 21
32156.3638
  0
LINE
  8
4-2
 62
     5
  6
CONTINUOUS
 10
21284.0378
 20
32143.5638
 11
21180.6778
 21
32143.5638
  0
LINE
  8
4-2
 62
     5
  6
CONTINUOUS
 10
21291.3978
 20
32130.7638
 11
21173.3178
 21
32130.7638
  0
LINE
  8
4-2
 62
     5
  6
CONTINUOUS
 10
21298.8218
 20
32117.9638
 11
21165.8938
 21
32117.9638
  0
LINE
  8
4-2
 62
     5
  6
CONTINUOUS
 10
21306.1818
 20
32105.1638
 11
21158.5338
 21
32105.1638
  0
LINE
  8
4-2
 62
     5
  6
CONTINUOUS
 10
21313.6058
 20
32092.3638
 11
21151.1738
 21
32092.3638
  0
LINE
  8
4-2
 62
     5
  6
CONTINUOUS
 10
21320.9658
 20
32079.5638
 11
21143.7498
 21
32079.5638
  0
LINE
  8
4-2
 62
     5
  6
CONTINUOUS
 10
21136.3898
 20
32066.7638
 11
21232.3898
 21
32233.0358
  0
LINE
  8
4-2
 62
     5
  6
CONTINUOUS
 10
21232.3898
 20
32233.0358
 11
21328.3898
 21
32066.7638
  0
LINE
  8
4-2
 62
     5
  6
CONTINUOUS
 10
21328.3898
 20
32066.7638
 11
21136.3898
 21
32066.7638
  0
LINE
  8
4-2
 62
     5
  6
CONTINUOUS
 10
34152.2245
 20
32066.7638
 11
33960.2245
 21
32066.7638
  0
LINE
  8
4-2
 62
     5
  6
CONTINUOUS
 10
34056.2245
 20
32233.0358
 11
34152.2245
 21
32066.7638
  0
LINE
  8
4-2
 62
     5
  6
CONTINUOUS
 10
33960.2245
 20
32066.7638
 11
34056.2245
 21
32233.0358
  0
LINE
  8
4-2
 62
     5
  6
CONTINUOUS
 10
34144.8005
 20
32079.5638
 11
33967.5845
 21
32079.5638
  0
LINE
  8
4-2
 62
     5
  6
CONTINUOUS
 10
34137.4405
 20
32092.3638
 11
33975.0085
 21
32092.3638
  0
LINE
  8
4-2
 62
     5
  6
CONTINUOUS
 10
34130.0165
 20
32105.1638
 11
33982.3685
 21
32105.1638
  0
LINE
  8
4-2
 62
     5
  6
CONTINUOUS
 10
34122.6565
 20
32117.9638
 11
33989.7285
 21
32117.9638
  0
LINE
  8
4-2
 62
     5
  6
CONTINUOUS
 10
34115.2325
 20
32130.7638
 11
33997.1525
 21
32130.7638
  0
LINE
  8
4-2
 62
     5
  6
CONTINUOUS
 10
34107.8725
 20
32143.5638
 11
34004.5125
 21
32143.5638
  0
LINE
  8
4-2
 62
     5
  6
CONTINUOUS
 10
34100.4485
 20
32156.3638
 11
34011.9365
 21
32156.3638
  0
LINE
  8
4-2
 62
     5
  6
CONTINUOUS
 10
34093.0885
 20
32169.1638
 11
34019.2965
 21
32169.1638
  0
LINE
  8
4-2
 62
     5
  6
CONTINUOUS
 10
34085.6645
 20
32181.9638
 11
34026.7205
 21
32181.9638
  0
LINE
  8
4-2
 62
     5
  6
CONTINUOUS
 10
34078.3045
 20
32194.7638
 11
34034.0805
 21
32194.7638
  0
LINE
  8
4-2
 62
     5
  6
CONTINUOUS
 10
34070.8805
 20
32207.5638
 11
34041.5045
 21
32207.5638
  0
LINE
  8
4-2
 62
     5
  6
CONTINUOUS
 10
34063.5205
 20
32220.3638
 11
34048.8645
 21
32220.3638
  0
LINE
  8
4-2
 62
     5
  6
CONTINUOUS
 10
44089.334
 20
32066.7638
 11
43897.334
 21
32066.7638
  0
LINE
  8
4-2
 62
     5
  6
CONTINUOUS
 10
43993.334
 20
32233.0358
 11
44089.334
 21
32066.7638
  0
LINE
  8
4-2
 62
     5
  6
CONTINUOUS
 10
43897.334
 20
32066.7638
 11
43993.334
 21
32233.0358
  0
LINE
  8
4-2
 62
     5
  6
CONTINUOUS
 10
44081.91
 20
32079.5638
 11
43904.694
 21
32079.5638
  0
LINE
  8
4-2
 62
     5
  6
CONTINUOUS
 10
44074.55
 20
32092.3638
 11
43912.118
 21
32092.3638
  0
LINE
  8
4-2
 62
     5
  6
CONTINUOUS
 10
44067.126
 20
32105.1638
 11
43919.478
 21
32105.1638
  0
LINE
  8
4-2
 62
     5
  6
CONTINUOUS
 10
44059.766
 20
32117.9638
 11
43926.838
 21
32117.9638
  0
LINE
  8
4-2
 62
     5
  6
CONTINUOUS
 10
44052.342
 20
32130.7638
 11
43934.262
 21
32130.7638
  0
LINE
  8
4-2
 62
     5
  6
CONTINUOUS
 10
44044.982
 20
32143.5638
 11
43941.622
 21
32143.5638
  0
LINE
  8
4-2
 62
     5
  6
CONTINUOUS
 10
44037.558
 20
32156.3638
 11
43949.046
 21
32156.3638
  0
LINE
  8
4-2
 62
     5
  6
CONTINUOUS
 10
44030.198
 20
32169.1638
 11
43956.406
 21
32169.1638
  0
LINE
  8
4-2
 62
     5
  6
CONTINUOUS
 10
44022.774
 20
32181.9638
 11
43963.83
 21
32181.9638
  0
LINE
  8
4-2
 62
     5
  6
CONTINUOUS
 10
44015.414
 20
32194.7638
 11
43971.19
 21
32194.7638
  0
LINE
  8
4-2
 62
     5
  6
CONTINUOUS
 10
44007.99
 20
32207.5638
 11
43978.614
 21
32207.5638
  0
LINE
  8
4-2
 62
     5
  6
CONTINUOUS
 10
44000.63
 20
32220.3638
 11
43985.974
 21
32220.3638
  0
LINE
  8
4-2
 62
     5
  6
CONTINUOUS
 10
55431.7955
 20
32066.7638
 11
55239.7955
 21
32066.7638
  0
LINE
  8
4-2
 62
     5
  6
CONTINUOUS
 10
55335.7955
 20
32233.0358
 11
55431.7955
 21
32066.7638
  0
LINE
  8
4-2
 62
     5
  6
CONTINUOUS
 10
55239.7955
 20
32066.7638
 11
55335.7955
 21
32233.0358
  0
LINE
  8
4-2
 62
     5
  6
CONTINUOUS
 10
55424.3715
 20
32079.5638
 11
55247.1555
 21
32079.5638
  0
LINE
  8
4-2
 62
     5
  6
CONTINUOUS
 10
55417.0115
 20
32092.3638
 11
55254.5795
 21
32092.3638
  0
LINE
  8
4-2
 62
     5
  6
CONTINUOUS
 10
55409.5875
 20
32105.1638
 11
55261.9395
 21
32105.1638
  0
LINE
  8
4-2
 62
     5
  6
CONTINUOUS
 10
55402.2275
 20
32117.9638
 11
55269.2995
 21
32117.9638
  0
LINE
  8
4-2
 62
     5
  6
CONTINUOUS
 10
55394.8035
 20
32130.7638
 11
55276.7235
 21
32130.7638
  0
LINE
  8
4-2
 62
     5
  6
CONTINUOUS
 10
55387.4435
 20
32143.5638
 11
55284.0835
 21
32143.5638
  0
LINE
  8
4-2
 62
     5
  6
CONTINUOUS
 10
55380.0195
 20
32156.3638
 11
55291.5075
 21
32156.3638
  0
LINE
  8
4-2
 62
     5
  6
CONTINUOUS
 10
55372.6595
 20
32169.1638
 11
55298.8675
 21
32169.1638
  0
LINE
  8
4-2
 62
     5
  6
CONTINUOUS
 10
55365.2355
 20
32181.9638
 11
55306.2915
 21
32181.9638
  0
LINE
  8
4-2
 62
     5
  6
CONTINUOUS
 10
55357.8755
 20
32194.7638
 11
55313.6515
 21
32194.7638
  0
LINE
  8
4-2
 62
     5
  6
CONTINUOUS
 10
55350.4515
 20
32207.5638
 11
55321.0755
 21
32207.5638
  0
LINE
  8
4-2
 62
     5
  6
CONTINUOUS
 10
55343.0915
 20
32220.3638
 11
55328.4355
 21
32220.3638
  0
LINE
  8
4-2
 62
     5
  6
CONTINUOUS
 10
36348.5593
 20
51326.5248
 11
36156.5593
 21
51326.5248
  0
LINE
  8
4-2
 62
     5
  6
CONTINUOUS
 10
36252.5593
 20
51492.7968
 11
36348.5593
 21
51326.5248
  0
LINE
  8
4-2
 62
     5
  6
CONTINUOUS
 10
36156.5593
 20
51326.5248
 11
36252.5593
 21
51492.7968
  0
LINE
  8
4-2
 62
     5
  6
CONTINUOUS
 10
36341.1353
 20
51339.3248
 11
36163.9193
 21
51339.3248
  0
LINE
  8
4-2
 62
     5
  6
CONTINUOUS
 10
36333.7753
 20
51352.1248
 11
36171.3433
 21
51352.1248
  0
LINE
  8
4-2
 62
     5
  6
CONTINUOUS
 10
36326.3513
 20
51364.9248
 11
36178.7033
 21
51364.9248
  0
LINE
  8
4-2
 62
     5
  6
CONTINUOUS
 10
36318.9913
 20
51377.7248
 11
36186.0633
 21
51377.7248
  0
LINE
  8
4-2
 62
     5
  6
CONTINUOUS
 10
36311.5673
 20
51390.5248
 11
36193.4873
 21
51390.5248
  0
LINE
  8
4-2
 62
     5
  6
CONTINUOUS
 10
36304.2073
 20
51403.3248
 11
36200.8473
 21
51403.3248
  0
LINE
  8
4-2
 62
     5
  6
CONTINUOUS
 10
36296.7833
 20
51416.1248
 11
36208.2713
 21
51416.1248
  0
LINE
  8
4-2
 62
     5
  6
CONTINUOUS
 10
36289.4233
 20
51428.9248
 11
36215.6313
 21
51428.9248
  0
LINE
  8
4-2
 62
     5
  6
CONTINUOUS
 10
36281.9993
 20
51441.7248
 11
36223.0553
 21
51441.7248
  0
LINE
  8
4-2
 62
     5
  6
CONTINUOUS
 10
36274.6393
 20
51454.5248
 11
36230.4153
 21
51454.5248
  0
LINE
  8
4-2
 62
     5
  6
CONTINUOUS
 10
36267.2153
 20
51467.3248
 11
36237.8393
 21
51467.3248
  0
LINE
  8
4-2
 62
     5
  6
CONTINUOUS
 10
36259.8553
 20
51480.1248
 11
36245.1993
 21
51480.1248
  0
LINE
  8
4-2
 62
     5
  6
CONTINUOUS
 10
13985.6562
 20
28059.2485
 11
13793.6562
 21
28059.2485
  0
LINE
  8
4-2
 62
     5
  6
CONTINUOUS
 10
13889.6562
 20
28225.5205
 11
13985.6562
 21
28059.2485
  0
LINE
  8
4-2
 62
     5
  6
CONTINUOUS
 10
13793.6562
 20
28059.2485
 11
13889.6562
 21
28225.5205
  0
LINE
  8
4-2
 62
     5
  6
CONTINUOUS
 10
13978.2322
 20
28072.0485
 11
13801.0162
 21
28072.0485
  0
LINE
  8
4-2
 62
     5
  6
CONTINUOUS
 10
13970.8722
 20
28084.8485
 11
13808.4402
 21
28084.8485
  0
LINE
  8
4-2
 62
     5
  6
CONTINUOUS
 10
13963.4482
 20
28097.6485
 11
13815.8002
 21
28097.6485
  0
LINE
  8
4-2
 62
     5
  6
CONTINUOUS
 10
13956.0882
 20
28110.4485
 11
13823.1602
 21
28110.4485
  0
LINE
  8
4-2
 62
     5
  6
CONTINUOUS
 10
13948.6642
 20
28123.2485
 11
13830.5842
 21
28123.2485
  0
LINE
  8
4-2
 62
     5
  6
CONTINUOUS
 10
13941.3042
 20
28136.0485
 11
13837.9442
 21
28136.0485
  0
LINE
  8
4-2
 62
     5
  6
CONTINUOUS
 10
13933.8802
 20
28148.8485
 11
13845.3682
 21
28148.8485
  0
LINE
  8
4-2
 62
     5
  6
CONTINUOUS
 10
13926.5202
 20
28161.6485
 11
13852.7282
 21
28161.6485
  0
LINE
  8
4-2
 62
     5
  6
CONTINUOUS
 10
13919.0962
 20
28174.4485
 11
13860.1522
 21
28174.4485
  0
LINE
  8
4-2
 62
     5
  6
CONTINUOUS
 10
13911.7362
 20
28187.2485
 11
13867.5122
 21
28187.2485
  0
LINE
  8
4-2
 62
     5
  6
CONTINUOUS
 10
13904.3122
 20
28200.0485
 11
13874.9362
 21
28200.0485
  0
LINE
  8
4-2
 62
     5
  6
CONTINUOUS
 10
13896.9522
 20
28212.8485
 11
13882.2962
 21
28212.8485
  0
LINE
  8
4-2
 62
     5
  6
CONTINUOUS
 10
25256.9522
 20
28212.8485
 11
25242.2962
 21
28212.8485
  0
LINE
  8
4-2
 62
     5
  6
CONTINUOUS
 10
25264.3122
 20
28200.0485
 11
25234.9362
 21
28200.0485
  0
LINE
  8
4-2
 62
     5
  6
CONTINUOUS
 10
25271.7362
 20
28187.2485
 11
25227.5122
 21
28187.2485
  0
LINE
  8
4-2
 62
     5
  6
CONTINUOUS
 10
25279.0962
 20
28174.4485
 11
25220.1522
 21
28174.4485
  0
LINE
  8
4-2
 62
     5
  6
CONTINUOUS
 10
25286.5202
 20
28161.6485
 11
25212.7282
 21
28161.6485
  0
LINE
  8
4-2
 62
     5
  6
CONTINUOUS
 10
25293.8802
 20
28148.8485
 11
25205.3682
 21
28148.8485
  0
LINE
  8
4-2
 62
     5
  6
CONTINUOUS
 10
25301.3042
 20
28136.0485
 11
25197.9442
 21
28136.0485
  0
LINE
  8
4-2
 62
     5
  6
CONTINUOUS
 10
25308.6642
 20
28123.2485
 11
25190.5842
 21
28123.2485
  0
LINE
  8
4-2
 62
     5
  6
CONTINUOUS
 10
25316.0882
 20
28110.4485
 11
25183.1602
 21
28110.4485
  0
LINE
  8
4-2
 62
     5
  6
CONTINUOUS
 10
25323.4482
 20
28097.6485
 11
25175.8002
 21
28097.6485
  0
LINE
  8
4-2
 62
     5
  6
CONTINUOUS
 10
25330.8722
 20
28084.8485
 11
25168.4402
 21
28084.8485
  0
LINE
  8
4-2
 62
     5
  6
CONTINUOUS
 10
25338.2322
 20
28072.0485
 11
25161.0162
 21
28072.0485
  0
LINE
  8
4-2
 62
     5
  6
CONTINUOUS
 10
25153.6562
 20
28059.2485
 11
25249.6562
 21
28225.5205
  0
LINE
  8
4-2
 62
     5
  6
CONTINUOUS
 10
25249.6562
 20
28225.5205
 11
25345.6562
 21
28059.2485
  0
LINE
  8
4-2
 62
     5
  6
CONTINUOUS
 10
25345.6562
 20
28059.2485
 11
25153.6562
 21
28059.2485
  0
LINE
  8
4-2
 62
     5
  6
CONTINUOUS
 10
38036.9522
 20
28212.8485
 11
38022.2962
 21
28212.8485
  0
LINE
  8
4-2
 62
     5
  6
CONTINUOUS
 10
38044.3122
 20
28200.0485
 11
38014.9362
 21
28200.0485
  0
LINE
  8
4-2
 62
     5
  6
CONTINUOUS
 10
38051.7362
 20
28187.2485
 11
38007.5122
 21
28187.2485
  0
LINE
  8
4-2
 62
     5
  6
CONTINUOUS
 10
38059.0962
 20
28174.4485
 11
38000.1522
 21
28174.4485
  0
LINE
  8
4-2
 62
     5
  6
CONTINUOUS
 10
38066.5202
 20
28161.6485
 11
37992.7282
 21
28161.6485
  0
LINE
  8
4-2
 62
     5
  6
CONTINUOUS
 10
38073.8802
 20
28148.8485
 11
37985.3682
 21
28148.8485
  0
LINE
  8
4-2
 62
     5
  6
CONTINUOUS
 10
38081.3042
 20
28136.0485
 11
37977.9442
 21
28136.0485
  0
LINE
  8
4-2
 62
     5
  6
CONTINUOUS
 10
38088.6642
 20
28123.2485
 11
37970.5842
 21
28123.2485
  0
LINE
  8
4-2
 62
     5
  6
CONTINUOUS
 10
38096.0882
 20
28110.4485
 11
37963.1602
 21
28110.4485
  0
LINE
  8
4-2
 62
     5
  6
CONTINUOUS
 10
38103.4482
 20
28097.6485
 11
37955.8002
 21
28097.6485
  0
LINE
  8
4-2
 62
     5
  6
CONTINUOUS
 10
38110.8722
 20
28084.8485
 11
37948.4402
 21
28084.8485
  0
LINE
  8
4-2
 62
     5
  6
CONTINUOUS
 10
38118.2322
 20
28072.0485
 11
37941.0162
 21
28072.0485
  0
LINE
  8
4-2
 62
     5
  6
CONTINUOUS
 10
37933.6562
 20
28059.2485
 11
38029.6562
 21
28225.5205
  0
LINE
  8
4-2
 62
     5
  6
CONTINUOUS
 10
38029.6562
 20
28225.5205
 11
38125.6562
 21
28059.2485
  0
LINE
  8
4-2
 62
     5
  6
CONTINUOUS
 10
38125.6562
 20
28059.2485
 11
37933.6562
 21
28059.2485
  0
LINE
  8
4-2
 62
     5
  6
CONTINUOUS
 10
49396.6332
 20
28212.8485
 11
49381.9772
 21
28212.8485
  0
LINE
  8
4-2
 62
     5
  6
CONTINUOUS
 10
49403.9932
 20
28200.0485
 11
49374.6172
 21
28200.0485
  0
LINE
  8
4-2
 62
     5
  6
CONTINUOUS
 10
49411.4172
 20
28187.2485
 11
49367.1932
 21
28187.2485
  0
LINE
  8
4-2
 62
     5
  6
CONTINUOUS
 10
49418.7772
 20
28174.4485
 11
49359.8332
 21
28174.4485
  0
LINE
  8
4-2
 62
     5
  6
CONTINUOUS
 10
49426.2012
 20
28161.6485
 11
49352.4092
 21
28161.6485
  0
LINE
  8
4-2
 62
     5
  6
CONTINUOUS
 10
49433.5612
 20
28148.8485
 11
49345.0492
 21
28148.8485
  0
LINE
  8
4-2
 62
     5
  6
CONTINUOUS
 10
49440.9852
 20
28136.0485
 11
49337.6252
 21
28136.0485
  0
LINE
  8
4-2
 62
     5
  6
CONTINUOUS
 10
49448.3452
 20
28123.2485
 11
49330.2652
 21
28123.2485
  0
LINE
  8
4-2
 62
     5
  6
CONTINUOUS
 10
49455.7692
 20
28110.4485
 11
49322.8412
 21
28110.4485
  0
LINE
  8
4-2
 62
     5
  6
CONTINUOUS
 10
49463.1292
 20
28097.6485
 11
49315.4812
 21
28097.6485
  0
LINE
  8
4-2
 62
     5
  6
CONTINUOUS
 10
49470.5532
 20
28084.8485
 11
49308.1212
 21
28084.8485
  0
LINE
  8
4-2
 62
     5
  6
CONTINUOUS
 10
49477.9132
 20
28072.0485
 11
49300.6972
 21
28072.0485
  0
LINE
  8
4-2
 62
     5
  6
CONTINUOUS
 10
49293.3372
 20
28059.2485
 11
49389.3372
 21
28225.5205
  0
LINE
  8
4-2
 62
     5
  6
CONTINUOUS
 10
49389.3372
 20
28225.5205
 11
49485.3372
 21
28059.2485
  0
LINE
  8
4-2
 62
     5
  6
CONTINUOUS
 10
49485.3372
 20
28059.2485
 11
49293.3372
 21
28059.2485
  0
LINE
  8
4-2
 62
     5
  6
CONTINUOUS
 10
62203.4775
 20
28212.8485
 11
62188.8215
 21
28212.8485
  0
LINE
  8
4-2
 62
     5
  6
CONTINUOUS
 10
62210.8375
 20
28200.0485
 11
62181.4615
 21
28200.0485
  0
LINE
  8
4-2
 62
     5
  6
CONTINUOUS
 10
62218.2615
 20
28187.2485
 11
62174.0375
 21
28187.2485
  0
LINE
  8
4-2
 62
     5
  6
CONTINUOUS
 10
62225.6215
 20
28174.4485
 11
62166.6775
 21
28174.4485
  0
LINE
  8
4-2
 62
     5
  6
CONTINUOUS
 10
62233.0455
 20
28161.6485
 11
62159.2535
 21
28161.6485
  0
LINE
  8
4-2
 62
     5
  6
CONTINUOUS
 10
62240.4055
 20
28148.8485
 11
62151.8935
 21
28148.8485
  0
LINE
  8
4-2
 62
     5
  6
CONTINUOUS
 10
62247.8295
 20
28136.0485
 11
62144.4695
 21
28136.0485
  0
LINE
  8
4-2
 62
     5
  6
CONTINUOUS
 10
62255.1895
 20
28123.2485
 11
62137.1095
 21
28123.2485
  0
LINE
  8
4-2
 62
     5
  6
CONTINUOUS
 10
62262.6135
 20
28110.4485
 11
62129.6855
 21
28110.4485
  0
LINE
  8
4-2
 62
     5
  6
CONTINUOUS
 10
62269.9735
 20
28097.6485
 11
62122.3255
 21
28097.6485
  0
LINE
  8
4-2
 62
     5
  6
CONTINUOUS
 10
62277.3975
 20
28084.8485
 11
62114.9655
 21
28084.8485
  0
LINE
  8
4-2
 62
     5
  6
CONTINUOUS
 10
62284.7575
 20
28072.0485
 11
62107.5415
 21
28072.0485
  0
LINE
  8
4-2
 62
     5
  6
CONTINUOUS
 10
62100.1815
 20
28059.2485
 11
62196.1815
 21
28225.5205
  0
LINE
  8
4-2
 62
     5
  6
CONTINUOUS
 10
62196.1815
 20
28225.5205
 11
62292.1815
 21
28059.2485
  0
LINE
  8
4-2
 62
     5
  6
CONTINUOUS
 10
62292.1815
 20
28059.2485
 11
62100.1815
 21
28059.2485
  0
LINE
  8
4-2
 62
     7
  6
CONTINUOUS
 10
30634.9563
 20
48627.3703
 11
28650.1237
 21
48627.3703
  0
LINE
  8
4-2
 62
     7
  6
CONTINUOUS
 10
82047.06
 20
37578.319
 11
82047.06
 21
57553.29
  0
LINE
  8
4-2
 62
     7
  6
CONTINUOUS
 10
75084.8885
 20
37578.319
 11
82047.06
 21
37578.319
  0
LINE
  8
4-2
 62
     7
  6
CONTINUOUS
 10
46093.1569
 20
42017.1997
 11
82047.06
 21
42017.1997
  0
LINE
  8
4-2
 62
     7
  6
CONTINUOUS
 10
46093.1569
 20
57553.29
 11
46093.1569
 21
42017.1997
  0
LINE
  8
4-2
 62
     7
  6
CONTINUOUS
 10
82047.06
 20
57553.29
 11
46093.1569
 21
57553.29
  0
LINE
  8
4-2
 62
     7
  6
CONTINUOUS
 10
36060.3479
 20
51448.7653
 11
34953.4285
 21
51448.7653
  0
LINE
  8
4-2
 62
     7
  6
CONTINUOUS
 10
36060.3479
 20
50900.2035
 11
36060.3479
 21
51448.7653
  0
LINE
  8
4-2
 62
     7
  6
CONTINUOUS
 10
34953.4285
 20
50900.2035
 11
36060.3479
 21
50900.2035
  0
LINE
  8
4-2
 62
     7
  6
CONTINUOUS
 10
34953.4285
 20
51448.7653
 11
34953.4285
 21
50900.2035
  0
LINE
  8
4-2
 62
     7
  6
CONTINUOUS
 10
31817.2652
 20
52641.5675
 11
32029.3973
 21
52853.6995
  0
LINE
  8
4-2
 62
     7
  6
CONTINUOUS
 10
37458.1841
 20
42698.105
 11
37958.1841
 21
42698.105
  0
LINE
  8
4-2
 62
     7
  6
CONTINUOUS
 10
37958.1841
 20
42698.105
 11
37958.1841
 21
43198.105
  0
LINE
  8
4-2
 62
     7
  6
CONTINUOUS
 10
37958.1841
 20
43198.105
 11
37458.1841
 21
43198.105
  0
LINE
  8
4-2
 62
     7
  6
CONTINUOUS
 10
37458.1841
 20
43198.105
 11
37458.1841
 21
42698.105
  0
LINE
  8
4-2
 62
     7
  6
CONTINUOUS
 10
37984.3654
 20
43198.105
 11
37984.3654
 21
42698.105
  0
LINE
  8
4-2
 62
     7
  6
CONTINUOUS
 10
38484.3654
 20
43198.105
 11
37984.3654
 21
43198.105
  0
LINE
  8
4-2
 62
     7
  6
CONTINUOUS
 10
38484.3654
 20
42698.105
 11
38484.3654
 21
43198.105
  0
LINE
  8
4-2
 62
     7
  6
CONTINUOUS
 10
37984.3654
 20
42698.105
 11
38484.3654
 21
42698.105
  0
LINE
  8
4-2
 62
     7
  6
CONTINUOUS
 10
38503.8007
 20
43198.105
 11
38503.8007
 21
42698.105
  0
LINE
  8
4-2
 62
     7
  6
CONTINUOUS
 10
39003.8007
 20
43198.105
 11
38503.8007
 21
43198.105
  0
LINE
  8
4-2
 62
     7
  6
CONTINUOUS
 10
39003.8007
 20
42698.105
 11
39003.8007
 21
43198.105
  0
LINE
  8
4-2
 62
     7
  6
CONTINUOUS
 10
38503.8007
 20
42698.105
 11
39003.8007
 21
42698.105
  0
LINE
  8
4-2
 62
     7
  6
CONTINUOUS
 10
39023.2361
 20
43198.105
 11
39023.2361
 21
42698.105
  0
LINE
  8
4-2
 62
     7
  6
CONTINUOUS
 10
39523.2361
 20
43198.105
 11
39023.2361
 21
43198.105
  0
LINE
  8
4-2
 62
     7
  6
CONTINUOUS
 10
39523.2361
 20
42698.105
 11
39523.2361
 21
43198.105
  0
LINE
  8
4-2
 62
     7
  6
CONTINUOUS
 10
39023.2361
 20
42698.105
 11
39523.2361
 21
42698.105
  0
LINE
  8
4-2
 62
     7
  6
CONTINUOUS
 10
39009.6365
 20
44790.4564
 11
39509.6365
 21
44790.4564
  0
LINE
  8
4-2
 62
     7
  6
CONTINUOUS
 10
39509.6365
 20
44790.4564
 11
39509.6365
 21
45290.4564
  0
LINE
  8
4-2
 62
     7
  6
CONTINUOUS
 10
39509.6365
 20
45290.4564
 11
39009.6365
 21
45290.4564
  0
LINE
  8
4-2
 62
     7
  6
CONTINUOUS
 10
39009.6365
 20
45290.4564
 11
39009.6365
 21
44790.4564
  0
LINE
  8
4-2
 62
     7
  6
CONTINUOUS
 10
70594.9563
 20
24345.9186
 11
10954.9563
 21
24345.9186
  0
LINE
  8
4-2
 62
     7
  6
CONTINUOUS
 10
10954.9563
 20
7576.5309
 11
70594.9563
 21
7576.5309
  0
LINE
  8
4-2
 62
     7
  6
DOT
 10
64931.9903
 20
28751.5885
 11
64931.9903
 21
27251.9041
  0
LINE
  8
4-2
 62
     7
  6
DOT
 10
64931.9903
 20
27251.9041
 11
67764.7275
 21
27251.9041
  0
LINE
  8
4-2
 62
     7
  6
DOT
 10
67764.7275
 20
27251.9041
 11
67764.7275
 21
28751.5885
  0
LINE
  8
4-2
 62
     7
  6
DOT
 10
67764.7275
 20
28751.5885
 11
64931.9903
 21
28751.5885
  0
LINE
  8
4-2
 62
     7
  6
DASHDOT
 10
71630.7862
 20
33632.4639
 11
71630.7862
 21
39313.5605
  0
LINE
  8
4-2
 62
     7
  6
DASHDOT
 10
66797.9384
 20
39313.5605
 11
66797.9384
 21
33632.4639
  0
LINE
  8
4-2
 62
     7
  6
CONTINUOUS
 10
70157.3303
 20
38260.8771
 11
69119.3878
 21
38260.8772
  0
LINE
  8
4-2
 62
     7
  6
CONTINUOUS
 10
70157.3303
 20
38360.8771
 11
69119.3878
 21
38360.8771
  0
LINE
  8
4-2
 62
     7
  6
DASHDOT
 10
66797.9384
 20
33632.4639
 11
68662.5878
 21
33632.4639
  0
LINE
  8
4-2
 62
     7
  6
DASHDOT
 10
69716.9272
 20
33632.4639
 11
71630.7862
 21
33632.4639
  0
LINE
  8
4-2
 62
     7
  6
DOT
 10
32841.1211
 20
49025.5438
 11
32841.1211
 21
48652.937
  0
LINE
  8
4-2
 62
     7
  6
DOT
 10
34772.593
 20
48652.937
 11
34772.593
 21
49025.5438
  0
LINE
  8
4-2
 62
     7
  6
DOT
 10
33455.3658
 20
49025.5438
 11
32841.1211
 21
49025.5438
  0
LINE
  8
4-2
 62
     7
  6
DOT
 10
32841.1211
 20
48652.937
 11
33455.3658
 21
48652.937
  0
LINE
  8
4-2
 62
     7
  6
DOT
 10
34772.593
 20
49025.5438
 11
33681.3197
 21
49025.5438
  0
LINE
  8
4-2
 62
     7
  6
DOT
 10
33681.3197
 20
48652.937
 11
34772.593
 21
48652.937
  0
LINE
  8
4-2
 62
     7
  6
CONTINUOUS
 10
75740.2033
 20
38369.6876
 11
75530.2033
 21
38369.6876
  0
LINE
  8
4-2
 62
     7
  6
CONTINUOUS
 10
75530.2033
 20
38369.6876
 11
75530.2033
 21
38579.6876
  0
LINE
  8
4-2
 62
     7
  6
CONTINUOUS
 10
75530.2033
 20
38579.6876
 11
75740.2033
 21
38579.6876
  0
LINE
  8
4-2
 62
     7
  6
CONTINUOUS
 10
75740.2033
 20
38579.6876
 11
75740.2033
 21
38369.6876
  0
LINE
  8
4-2
 62
     7
  6
CONTINUOUS
 10
35048.9973
 20
48658.8267
 11
35048.9973
 21
48490.8267
  0
LINE
  8
4-2
 62
     7
  6
CONTINUOUS
 10
34880.9973
 20
48658.8267
 11
35048.9973
 21
48658.8267
  0
LINE
  8
4-2
 62
     7
  6
CONTINUOUS
 10
34880.9973
 20
48490.8267
 11
34880.9973
 21
48658.8267
  0
LINE
  8
4-2
 62
     7
  6
CONTINUOUS
 10
35048.9973
 20
48490.8267
 11
34880.9973
 21
48490.8267
  0
LINE
  8
4-2
 62
     7
  6
CONTINUOUS
 10
35677.3302
 20
43411.7698
 11
35677.3302
 21
43243.7698
  0
LINE
  8
4-2
 62
     7
  6
CONTINUOUS
 10
35509.3302
 20
43411.7698
 11
35677.3302
 21
43411.7698
  0
LINE
  8
4-2
 62
     7
  6
CONTINUOUS
 10
35509.3302
 20
43243.7698
 11
35509.3302
 21
43411.7698
  0
LINE
  8
4-2
 62
     7
  6
CONTINUOUS
 10
35677.3302
 20
43243.7698
 11
35509.3302
 21
43243.7698
  0
LINE
  8
4-2
 62
     7
  6
CONTINUOUS
 10
36500.2863
 20
43411.7698
 11
36500.2863
 21
43243.7698
  0
LINE
  8
4-2
 62
     7
  6
CONTINUOUS
 10
36332.2863
 20
43411.7698
 11
36500.2863
 21
43411.7698
  0
LINE
  8
4-2
 62
     7
  6
CONTINUOUS
 10
36332.2863
 20
43243.7698
 11
36332.2863
 21
43411.7698
  0
LINE
  8
4-2
 62
     7
  6
CONTINUOUS
 10
36500.2863
 20
43243.7698
 11
36332.2863
 21
43243.7698
  0
LINE
  8
4-2
 62
     7
  6
CONTINUOUS
 10
37267.1317
 20
43393.0662
 11
37267.1317
 21
43225.0662
  0
LINE
  8
4-2
 62
     7
  6
CONTINUOUS
 10
37099.1317
 20
43393.0662
 11
37267.1317
 21
43393.0662
  0
LINE
  8
4-2
 62
     7
  6
CONTINUOUS
 10
37099.1317
 20
43225.0662
 11
37099.1317
 21
43393.0662
  0
LINE
  8
4-2
 62
     7
  6
CONTINUOUS
 10
37267.1317
 20
43225.0662
 11
37099.1317
 21
43225.0662
  0
LINE
  8
4-2
 62
     7
  6
CONTINUOUS
 10
41222.6303
 20
46127.7697
 11
41222.6303
 21
45959.7697
  0
LINE
  8
4-2
 62
     7
  6
CONTINUOUS
 10
41054.6303
 20
46127.7697
 11
41222.6303
 21
46127.7697
  0
LINE
  8
4-2
 62
     7
  6
CONTINUOUS
 10
41054.6303
 20
45959.7697
 11
41054.6303
 21
46127.7697
  0
LINE
  8
4-2
 62
     7
  6
CONTINUOUS
 10
41222.6303
 20
45959.7697
 11
41054.6303
 21
45959.7697
  0
LINE
  8
4-2
 62
     7
  6
CONTINUOUS
 10
41206.4317
 20
43293.0134
 11
41206.4317
 21
43125.0134
  0
LINE
  8
4-2
 62
     7
  6
CONTINUOUS
 10
41038.4317
 20
43293.0134
 11
41206.4317
 21
43293.0134
  0
LINE
  8
4-2
 62
     7
  6
CONTINUOUS
 10
41038.4317
 20
43125.0134
 11
41038.4317
 21
43293.0134
  0
LINE
  8
4-2
 62
     7
  6
CONTINUOUS
 10
41206.4317
 20
43125.0134
 11
41038.4317
 21
43125.0134
  0
LINE
  8
4-2
 62
     7
  6
DOT
 10
31484.9563
 20
48840.3703
 11
32841.1211
 21
48840.3703
  0
LINE
  8
4-2
 62
     7
  6
CONTINUOUS
 10
31184.9562
 20
48706.4946
 11
31234.9562
 21
48806.4945
  0
LINE
  8
4-2
 62
     7
  6
CONTINUOUS
 10
31134.9562
 20
48706.4946
 11
31184.9562
 21
48806.4946
  0
LINE
  8
4-2
 62
     7
  6
CONTINUOUS
 10
30934.9562
 20
48756.4946
 11
31434.9562
 21
48756.4945
  0
LINE
  8
4-2
 62
     7
  6
CONTINUOUS
 10
31334.9563
 20
49056.4945
 11
31434.9563
 21
49056.4945
  0
LINE
  8
4-2
 62
     7
  6
CONTINUOUS
 10
30834.9563
 20
49056.4946
 11
30984.9563
 21
49056.4946
  0
LINE
  8
4-2
 62
     7
  6
CONTINUOUS
 10
30634.9562
 20
48556.4946
 11
31484.9562
 21
48556.4945
  0
LINE
  8
4-2
 62
     7
  6
CONTINUOUS
 10
30634.9563
 20
49256.4946
 11
31484.9563
 21
49256.4945
  0
LINE
  8
4-2
 62
     7
  6
CONTINUOUS
 10
31484.9563
 20
49256.4945
 11
31484.9562
 21
48556.4945
  0
LINE
  8
4-2
 62
     7
  6
CONTINUOUS
 10
30634.9563
 20
49256.4946
 11
30634.9562
 21
48556.4946
  0
LINE
  8
4-2
 62
     7
  6
CONTINUOUS
 10
30834.9563
 20
50456.4946
 11
30834.9563
 21
47945.0928
  0
LINE
  8
4-2
 62
     7
  6
CONTINUOUS
 10
30834.9563
 20
49530.5285
 11
30834.9563
 21
48956.4946
  0
LINE
  8
4-2
 62
     7
  6
CONTINUOUS
 10
41206.4317
 20
43284.6134
 11
41038.4317
 21
43284.6134
  0
LINE
  8
4-2
 62
     7
  6
CONTINUOUS
 10
41206.4317
 20
43276.2134
 11
41038.4317
 21
43276.2134
  0
LINE
  8
4-2
 62
     7
  6
CONTINUOUS
 10
41206.4317
 20
43267.8134
 11
41038.4317
 21
43267.8134
  0
LINE
  8
4-2
 62
     7
  6
CONTINUOUS
 10
41206.4317
 20
43259.4134
 11
41038.4317
 21
43259.4134
  0
LINE
  8
4-2
 62
     7
  6
CONTINUOUS
 10
41206.4317
 20
43251.0134
 11
41038.4317
 21
43251.0134
  0
LINE
  8
4-2
 62
     7
  6
CONTINUOUS
 10
41206.4317
 20
43242.6134
 11
41038.4317
 21
43242.6134
  0
LINE
  8
4-2
 62
     7
  6
CONTINUOUS
 10
41206.4317
 20
43234.2134
 11
41038.4317
 21
43234.2134
  0
LINE
  8
4-2
 62
     7
  6
CONTINUOUS
 10
41206.4317
 20
43225.8134
 11
41038.4317
 21
43225.8134
  0
LINE
  8
4-2
 62
     7
  6
CONTINUOUS
 10
41206.4317
 20
43217.4134
 11
41038.4317
 21
43217.4134
  0
LINE
  8
4-2
 62
     7
  6
CONTINUOUS
 10
41206.4317
 20
43209.0134
 11
41038.4317
 21
43209.0134
  0
LINE
  8
4-2
 62
     7
  6
CONTINUOUS
 10
41206.4317
 20
43200.6134
 11
41038.4317
 21
43200.6134
  0
LINE
  8
4-2
 62
     7
  6
CONTINUOUS
 10
41206.4317
 20
43192.2134
 11
41038.4317
 21
43192.2134
  0
LINE
  8
4-2
 62
     7
  6
CONTINUOUS
 10
41206.4317
 20
43183.8134
 11
41038.4317
 21
43183.8134
  0
LINE
  8
4-2
 62
     7
  6
CONTINUOUS
 10
41206.4317
 20
43175.4134
 11
41038.4317
 21
43175.4134
  0
LINE
  8
4-2
 62
     7
  6
CONTINUOUS
 10
41206.4317
 20
43167.0134
 11
41038.4317
 21
43167.0134
  0
LINE
  8
4-2
 62
     7
  6
CONTINUOUS
 10
41206.4317
 20
43158.6134
 11
41038.4317
 21
43158.6134
  0
LINE
  8
4-2
 62
     7
  6
CONTINUOUS
 10
41206.4317
 20
43150.2134
 11
41038.4317
 21
43150.2134
  0
LINE
  8
4-2
 62
     7
  6
CONTINUOUS
 10
41206.4317
 20
43141.8134
 11
41038.4317
 21
43141.8134
  0
LINE
  8
4-2
 62
     7
  6
CONTINUOUS
 10
41206.4317
 20
43133.4134
 11
41038.4317
 21
43133.4134
  0
LINE
  8
4-2
 62
     7
  6
CONTINUOUS
 10
41222.6303
 20
46119.3697
 11
41054.6303
 21
46119.3697
  0
LINE
  8
4-2
 62
     7
  6
CONTINUOUS
 10
41222.6303
 20
46110.9697
 11
41054.6303
 21
46110.9697
  0
LINE
  8
4-2
 62
     7
  6
CONTINUOUS
 10
41222.6303
 20
46102.5697
 11
41054.6303
 21
46102.5697
  0
LINE
  8
4-2
 62
     7
  6
CONTINUOUS
 10
41222.6303
 20
46094.1697
 11
41054.6303
 21
46094.1697
  0
LINE
  8
4-2
 62
     7
  6
CONTINUOUS
 10
41222.6303
 20
46085.7697
 11
41054.6303
 21
46085.7697
  0
LINE
  8
4-2
 62
     7
  6
CONTINUOUS
 10
41222.6303
 20
46077.3697
 11
41054.6303
 21
46077.3697
  0
LINE
  8
4-2
 62
     7
  6
CONTINUOUS
 10
41222.6303
 20
46068.9697
 11
41054.6303
 21
46068.9697
  0
LINE
  8
4-2
 62
     7
  6
CONTINUOUS
 10
41222.6303
 20
46060.5697
 11
41054.6303
 21
46060.5697
  0
LINE
  8
4-2
 62
     7
  6
CONTINUOUS
 10
41222.6303
 20
46052.1697
 11
41054.6303
 21
46052.1697
  0
LINE
  8
4-2
 62
     7
  6
CONTINUOUS
 10
41222.6303
 20
46043.7697
 11
41054.6303
 21
46043.7697
  0
LINE
  8
4-2
 62
     7
  6
CONTINUOUS
 10
41222.6303
 20
46035.3697
 11
41054.6303
 21
46035.3697
  0
LINE
  8
4-2
 62
     7
  6
CONTINUOUS
 10
41222.6303
 20
46026.9697
 11
41054.6303
 21
46026.9697
  0
LINE
  8
4-2
 62
     7
  6
CONTINUOUS
 10
41222.6303
 20
46018.5697
 11
41054.6303
 21
46018.5697
  0
LINE
  8
4-2
 62
     7
  6
CONTINUOUS
 10
41222.6303
 20
46010.1697
 11
41054.6303
 21
46010.1697
  0
LINE
  8
4-2
 62
     7
  6
CONTINUOUS
 10
41222.6303
 20
46001.7697
 11
41054.6303
 21
46001.7697
  0
LINE
  8
4-2
 62
     7
  6
CONTINUOUS
 10
41222.6303
 20
45993.3697
 11
41054.6303
 21
45993.3697
  0
LINE
  8
4-2
 62
     7
  6
CONTINUOUS
 10
41222.6303
 20
45984.9697
 11
41054.6303
 21
45984.9697
  0
LINE
  8
4-2
 62
     7
  6
CONTINUOUS
 10
41222.6303
 20
45976.5697
 11
41054.6303
 21
45976.5697
  0
LINE
  8
4-2
 62
     7
  6
CONTINUOUS
 10
41222.6303
 20
45968.1697
 11
41054.6303
 21
45968.1697
  0
LINE
  8
4-2
 62
     7
  6
CONTINUOUS
 10
37267.1317
 20
43384.6662
 11
37099.1317
 21
43384.6662
  0
LINE
  8
4-2
 62
     7
  6
CONTINUOUS
 10
37267.1317
 20
43376.2662
 11
37099.1317
 21
43376.2662
  0
LINE
  8
4-2
 62
     7
  6
CONTINUOUS
 10
37267.1317
 20
43367.8662
 11
37099.1317
 21
43367.8662
  0
LINE
  8
4-2
 62
     7
  6
CONTINUOUS
 10
37267.1317
 20
43359.4662
 11
37099.1317
 21
43359.4662
  0
LINE
  8
4-2
 62
     7
  6
CONTINUOUS
 10
37267.1317
 20
43351.0662
 11
37099.1317
 21
43351.0662
  0
LINE
  8
4-2
 62
     7
  6
CONTINUOUS
 10
37267.1317
 20
43342.6662
 11
37099.1317
 21
43342.6662
  0
LINE
  8
4-2
 62
     7
  6
CONTINUOUS
 10
37267.1317
 20
43334.2662
 11
37099.1317
 21
43334.2662
  0
LINE
  8
4-2
 62
     7
  6
CONTINUOUS
 10
37267.1317
 20
43325.8662
 11
37099.1317
 21
43325.8662
  0
LINE
  8
4-2
 62
     7
  6
CONTINUOUS
 10
37267.1317
 20
43317.4662
 11
37099.1317
 21
43317.4662
  0
LINE
  8
4-2
 62
     7
  6
CONTINUOUS
 10
37267.1317
 20
43309.0662
 11
37099.1317
 21
43309.0662
  0
LINE
  8
4-2
 62
     7
  6
CONTINUOUS
 10
37267.1317
 20
43300.6662
 11
37099.1317
 21
43300.6662
  0
LINE
  8
4-2
 62
     7
  6
CONTINUOUS
 10
37267.1317
 20
43292.2662
 11
37099.1317
 21
43292.2662
  0
LINE
  8
4-2
 62
     7
  6
CONTINUOUS
 10
37267.1317
 20
43283.8662
 11
37099.1317
 21
43283.8662
  0
LINE
  8
4-2
 62
     7
  6
CONTINUOUS
 10
37267.1317
 20
43275.4662
 11
37099.1317
 21
43275.4662
  0
LINE
  8
4-2
 62
     7
  6
CONTINUOUS
 10
37267.1317
 20
43267.0662
 11
37099.1317
 21
43267.0662
  0
LINE
  8
4-2
 62
     7
  6
CONTINUOUS
 10
37267.1317
 20
43258.6662
 11
37099.1317
 21
43258.6662
  0
LINE
  8
4-2
 62
     7
  6
CONTINUOUS
 10
37267.1317
 20
43250.2662
 11
37099.1317
 21
43250.2662
  0
LINE
  8
4-2
 62
     7
  6
CONTINUOUS
 10
37267.1317
 20
43241.8662
 11
37099.1317
 21
43241.8662
  0
LINE
  8
4-2
 62
     7
  6
CONTINUOUS
 10
37267.1317
 20
43233.4662
 11
37099.1317
 21
43233.4662
  0
LINE
  8
4-2
 62
     7
  6
CONTINUOUS
 10
36500.2863
 20
43403.3698
 11
36332.2863
 21
43403.3698
  0
LINE
  8
4-2
 62
     7
  6
CONTINUOUS
 10
36500.2863
 20
43394.9698
 11
36332.2863
 21
43394.9698
  0
LINE
  8
4-2
 62
     7
  6
CONTINUOUS
 10
36500.2863
 20
43386.5698
 11
36332.2863
 21
43386.5698
  0
LINE
  8
4-2
 62
     7
  6
CONTINUOUS
 10
36500.2863
 20
43378.1698
 11
36332.2863
 21
43378.1698
  0
LINE
  8
4-2
 62
     7
  6
CONTINUOUS
 10
36500.2863
 20
43369.7698
 11
36332.2863
 21
43369.7698
  0
LINE
  8
4-2
 62
     7
  6
CONTINUOUS
 10
36500.2863
 20
43361.3698
 11
36332.2863
 21
43361.3698
  0
LINE
  8
4-2
 62
     7
  6
CONTINUOUS
 10
36500.2863
 20
43352.9698
 11
36332.2863
 21
43352.9698
  0
LINE
  8
4-2
 62
     7
  6
CONTINUOUS
 10
36500.2863
 20
43344.5698
 11
36332.2863
 21
43344.5698
  0
LINE
  8
4-2
 62
     7
  6
CONTINUOUS
 10
36500.2863
 20
43336.1698
 11
36332.2863
 21
43336.1698
  0
LINE
  8
4-2
 62
     7
  6
CONTINUOUS
 10
36500.2863
 20
43327.7698
 11
36332.2863
 21
43327.7698
  0
LINE
  8
4-2
 62
     7
  6
CONTINUOUS
 10
36500.2863
 20
43319.3698
 11
36332.2863
 21
43319.3698
  0
LINE
  8
4-2
 62
     7
  6
CONTINUOUS
 10
36500.2863
 20
43310.9698
 11
36332.2863
 21
43310.9698
  0
LINE
  8
4-2
 62
     7
  6
CONTINUOUS
 10
36500.2863
 20
43302.5698
 11
36332.2863
 21
43302.5698
  0
LINE
  8
4-2
 62
     7
  6
CONTINUOUS
 10
36500.2863
 20
43294.1698
 11
36332.2863
 21
43294.1698
  0
LINE
  8
4-2
 62
     7
  6
CONTINUOUS
 10
36500.2863
 20
43285.7698
 11
36332.2863
 21
43285.7698
  0
LINE
  8
4-2
 62
     7
  6
CONTINUOUS
 10
36500.2863
 20
43277.3698
 11
36332.2863
 21
43277.3698
  0
LINE
  8
4-2
 62
     7
  6
CONTINUOUS
 10
36500.2863
 20
43268.9698
 11
36332.2863
 21
43268.9698
  0
LINE
  8
4-2
 62
     7
  6
CONTINUOUS
 10
36500.2863
 20
43260.5698
 11
36332.2863
 21
43260.5698
  0
LINE
  8
4-2
 62
     7
  6
CONTINUOUS
 10
36500.2863
 20
43252.1698
 11
36332.2863
 21
43252.1698
  0
LINE
  8
4-2
 62
     7
  6
CONTINUOUS
 10
35677.3302
 20
43403.3698
 11
35509.3302
 21
43403.3698
  0
LINE
  8
4-2
 62
     7
  6
CONTINUOUS
 10
35677.3302
 20
43394.9698
 11
35509.3302
 21
43394.9698
  0
LINE
  8
4-2
 62
     7
  6
CONTINUOUS
 10
35677.3302
 20
43386.5698
 11
35509.3302
 21
43386.5698
  0
LINE
  8
4-2
 62
     7
  6
CONTINUOUS
 10
35677.3302
 20
43378.1698
 11
35509.3302
 21
43378.1698
  0
LINE
  8
4-2
 62
     7
  6
CONTINUOUS
 10
35677.3302
 20
43369.7698
 11
35509.3302
 21
43369.7698
  0
LINE
  8
4-2
 62
     7
  6
CONTINUOUS
 10
35677.3302
 20
43361.3698
 11
35509.3302
 21
43361.3698
  0
LINE
  8
4-2
 62
     7
  6
CONTINUOUS
 10
35677.3302
 20
43352.9698
 11
35509.3302
 21
43352.9698
  0
LINE
  8
4-2
 62
     7
  6
CONTINUOUS
 10
35677.3302
 20
43344.5698
 11
35509.3302
 21
43344.5698
  0
LINE
  8
4-2
 62
     7
  6
CONTINUOUS
 10
35677.3302
 20
43336.1698
 11
35509.3302
 21
43336.1698
  0
LINE
  8
4-2
 62
     7
  6
CONTINUOUS
 10
35677.3302
 20
43327.7698
 11
35509.3302
 21
43327.7698
  0
LINE
  8
4-2
 62
     7
  6
CONTINUOUS
 10
35677.3302
 20
43319.3698
 11
35509.3302
 21
43319.3698
  0
LINE
  8
4-2
 62
     7
  6
CONTINUOUS
 10
35677.3302
 20
43310.9698
 11
35509.3302
 21
43310.9698
  0
LINE
  8
4-2
 62
     7
  6
CONTINUOUS
 10
35677.3302
 20
43302.5698
 11
35509.3302
 21
43302.5698
  0
LINE
  8
4-2
 62
     7
  6
CONTINUOUS
 10
35677.3302
 20
43294.1698
 11
35509.3302
 21
43294.1698
  0
LINE
  8
4-2
 62
     7
  6
CONTINUOUS
 10
35677.3302
 20
43285.7698
 11
35509.3302
 21
43285.7698
  0
LINE
  8
4-2
 62
     7
  6
CONTINUOUS
 10
35677.3302
 20
43277.3698
 11
35509.3302
 21
43277.3698
  0
LINE
  8
4-2
 62
     7
  6
CONTINUOUS
 10
35677.3302
 20
43268.9698
 11
35509.3302
 21
43268.9698
  0
LINE
  8
4-2
 62
     7
  6
CONTINUOUS
 10
35677.3302
 20
43260.5698
 11
35509.3302
 21
43260.5698
  0
LINE
  8
4-2
 62
     7
  6
CONTINUOUS
 10
35677.3302
 20
43252.1698
 11
35509.3302
 21
43252.1698
  0
LINE
  8
4-2
 62
     7
  6
CONTINUOUS
 10
35048.9973
 20
48650.4267
 11
34880.9973
 21
48650.4267
  0
LINE
  8
4-2
 62
     7
  6
CONTINUOUS
 10
35048.9973
 20
48642.0267
 11
34880.9973
 21
48642.0267
  0
LINE
  8
4-2
 62
     7
  6
CONTINUOUS
 10
35048.9973
 20
48633.6267
 11
34880.9973
 21
48633.6267
  0
LINE
  8
4-2
 62
     7
  6
CONTINUOUS
 10
35048.9973
 20
48625.2267
 11
34880.9973
 21
48625.2267
  0
LINE
  8
4-2
 62
     7
  6
CONTINUOUS
 10
35048.9973
 20
48616.8267
 11
34880.9973
 21
48616.8267
  0
LINE
  8
4-2
 62
     7
  6
CONTINUOUS
 10
35048.9973
 20
48608.4267
 11
34880.9973
 21
48608.4267
  0
LINE
  8
4-2
 62
     7
  6
CONTINUOUS
 10
35048.9973
 20
48600.0267
 11
34880.9973
 21
48600.0267
  0
LINE
  8
4-2
 62
     7
  6
CONTINUOUS
 10
35048.9973
 20
48591.6267
 11
34880.9973
 21
48591.6267
  0
LINE
  8
4-2
 62
     7
  6
CONTINUOUS
 10
35048.9973
 20
48583.2267
 11
34880.9973
 21
48583.2267
  0
LINE
  8
4-2
 62
     7
  6
CONTINUOUS
 10
35048.9973
 20
48574.8267
 11
34880.9973
 21
48574.8267
  0
LINE
  8
4-2
 62
     7
  6
CONTINUOUS
 10
35048.9973
 20
48566.4267
 11
34880.9973
 21
48566.4267
  0
LINE
  8
4-2
 62
     7
  6
CONTINUOUS
 10
35048.9973
 20
48558.0267
 11
34880.9973
 21
48558.0267
  0
LINE
  8
4-2
 62
     7
  6
CONTINUOUS
 10
35048.9973
 20
48549.6267
 11
34880.9973
 21
48549.6267
  0
LINE
  8
4-2
 62
     7
  6
CONTINUOUS
 10
35048.9973
 20
48541.2267
 11
34880.9973
 21
48541.2267
  0
LINE
  8
4-2
 62
     7
  6
CONTINUOUS
 10
35048.9973
 20
48532.8267
 11
34880.9973
 21
48532.8267
  0
LINE
  8
4-2
 62
     7
  6
CONTINUOUS
 10
35048.9973
 20
48524.4267
 11
34880.9973
 21
48524.4267
  0
LINE
  8
4-2
 62
     7
  6
CONTINUOUS
 10
35048.9973
 20
48516.0267
 11
34880.9973
 21
48516.0267
  0
LINE
  8
4-2
 62
     7
  6
CONTINUOUS
 10
35048.9973
 20
48507.6267
 11
34880.9973
 21
48507.6267
  0
LINE
  8
4-2
 62
     7
  6
CONTINUOUS
 10
35048.9973
 20
48499.2267
 11
34880.9973
 21
48499.2267
  0
LINE
  8
4-2
 62
     7
  6
DOT
 10
69701.6573
 20
27989.1979
 11
62037.8318
 21
27989.1981
  0
LINE
  8
4-2
 62
     7
  6
DOT
 10
54073.0103
 20
27989.1979
 11
49230.9876
 21
27989.1981
  0
LINE
  8
4-2
 62
     7
  6
DOT
 10
35646.4467
 20
27989.1979
 11
25091.3066
 21
27989.1981
  0
LINE
  8
4-2
 62
     7
  6
DOT
 10
46974.4295
 20
27989.1979
 11
37871.3065
 21
27989.1981
  0
LINE
  8
4-2
 62
     7
  6
DOT
 10
22834.4295
 20
27989.1979
 11
13731.3065
 21
27989.1981
  0
LINE
  8
4-2
 62
     7
  6
CONTINUOUS
 10
75740.2033
 20
38380.1876
 11
75530.2033
 21
38380.1876
  0
LINE
  8
4-2
 62
     7
  6
CONTINUOUS
 10
75740.2033
 20
38390.6876
 11
75530.2033
 21
38390.6876
  0
LINE
  8
4-2
 62
     7
  6
CONTINUOUS
 10
75740.2033
 20
38401.1876
 11
75530.2033
 21
38401.1876
  0
LINE
  8
4-2
 62
     7
  6
CONTINUOUS
 10
75740.2033
 20
38411.6876
 11
75530.2033
 21
38411.6876
  0
LINE
  8
4-2
 62
     7
  6
CONTINUOUS
 10
75740.2033
 20
38422.1876
 11
75530.2033
 21
38422.1876
  0
LINE
  8
4-2
 62
     7
  6
CONTINUOUS
 10
75740.2033
 20
38432.6876
 11
75530.2033
 21
38432.6876
  0
LINE
  8
4-2
 62
     7
  6
CONTINUOUS
 10
75740.2033
 20
38443.1876
 11
75530.2033
 21
38443.1876
  0
LINE
  8
4-2
 62
     7
  6
CONTINUOUS
 10
75740.2033
 20
38453.6876
 11
75530.2033
 21
38453.6876
  0
LINE
  8
4-2
 62
     7
  6
CONTINUOUS
 10
75740.2033
 20
38464.1876
 11
75530.2033
 21
38464.1876
  0
LINE
  8
4-2
 62
     7
  6
CONTINUOUS
 10
75740.2033
 20
38474.6876
 11
75530.2033
 21
38474.6876
  0
LINE
  8
4-2
 62
     7
  6
CONTINUOUS
 10
75740.2033
 20
38485.1876
 11
75530.2033
 21
38485.1876
  0
LINE
  8
4-2
 62
     7
  6
CONTINUOUS
 10
75740.2033
 20
38495.6876
 11
75530.2033
 21
38495.6876
  0
LINE
  8
4-2
 62
     7
  6
CONTINUOUS
 10
75740.2033
 20
38506.1876
 11
75530.2033
 21
38506.1876
  0
LINE
  8
4-2
 62
     7
  6
CONTINUOUS
 10
75740.2033
 20
38516.6876
 11
75530.2033
 21
38516.6876
  0
LINE
  8
4-2
 62
     7
  6
CONTINUOUS
 10
75740.2033
 20
38527.1876
 11
75530.2033
 21
38527.1876
  0
LINE
  8
4-2
 62
     7
  6
CONTINUOUS
 10
75740.2033
 20
38537.6876
 11
75530.2033
 21
38537.6876
  0
LINE
  8
4-2
 62
     7
  6
CONTINUOUS
 10
75740.2033
 20
38548.1876
 11
75530.2033
 21
38548.1876
  0
LINE
  8
4-2
 62
     7
  6
CONTINUOUS
 10
75740.2033
 20
38558.6876
 11
75530.2033
 21
38558.6876
  0
LINE
  8
4-2
 62
     7
  6
CONTINUOUS
 10
75740.2033
 20
38569.1876
 11
75530.2033
 21
38569.1876
  0
LINE
  8
4-2
 62
     7
  6
CONTINUOUS
 10
76090.2325
 20
41129.4235
 11
76090.2325
 21
37578.319
  0
LINE
  8
4-2
 62
     7
  6
CONTINUOUS
 10
76090.2325
 20
38466.0951
 11
82047.06
 21
38466.0951
  0
LINE
  8
4-2
 62
     7
  6
CONTINUOUS
 10
75084.8885
 20
41129.4235
 11
82047.06
 21
41129.4235
  0
LINE
  8
4-2
 62
     7
  6
CONTINUOUS
 10
75084.8885
 20
40241.6474
 11
82047.06
 21
40241.6474
  0
LINE
  8
4-2
 62
     7
  6
CONTINUOUS
 10
75084.8885
 20
39353.8712
 11
82047.06
 21
39353.8712
  0
LINE
  8
4-2
 62
     7
  6
CONTINUOUS
 10
75084.8885
 20
42017.1997
 11
75084.8885
 21
37578.319
  0
LINE
  8
4-2
 62
     7
  6
CONTINUOUS
 10
6629.0816
 20
24516.3265
 11
6629.0816
 21
24916.3265
  0
LINE
  8
4-2
 62
     7
  6
CONTINUOUS
 10
6629.0816
 20
24916.3265
 11
10629.0816
 21
24916.3265
  0
LINE
  8
4-2
 62
     7
  6
CONTINUOUS
 10
10629.0816
 20
24916.3265
 11
10629.0816
 21
24516.3265
  0
LINE
  8
4-2
 62
     7
  6
CONTINUOUS
 10
10629.0816
 20
24516.3265
 11
6629.0816
 21
24516.3265
  0
LINE
  8
4-2
 62
     7
  6
DASHDOT
 10
33982.7988
 20
42797.3703
 11
33982.7989
 21
40653.4985
  0
LINE
  8
4-2
 62
     7
  6
DASHDOT
 10
33982.7988
 20
44370.3427
 11
33982.7989
 21
43097.3703
  0
LINE
  8
4-2
 62
     7
  6
DASHDOT
 10
69456.0735
 20
35050.0596
 11
64779.5918
 21
35050.0596
  0
LINE
  8
4-2
 62
     7
  6
DASHDOT
 10
64779.5918
 20
40653.4985
 11
64779.5918
 21
35050.0596
  0
LINE
  8
4-2
 62
     7
  6
DASHDOT
 10
33982.7989
 20
40653.4985
 11
64779.5918
 21
40653.4985
  0
LINE
  8
4-2
 62
     7
  6
DASHDOT
 10
30715.1259
 20
44370.3427
 11
33982.7988
 21
44370.3427
  0
LINE
  8
4-2
 62
     7
  6
CONTINUOUS
 10
54264.9563
 20
27374.5219
 11
58524.9563
 21
27374.5219
  0
LINE
  8
4-2
 62
     7
  6
CONTINUOUS
 10
43514.9563
 20
29052.5906
 11
43514.9563
 21
29651.67
  0
LINE
  8
4-2
 62
     7
  6
CONTINUOUS
 10
66234.9563
 20
29052.5897
 11
66234.9563
 21
29651.6691
  0
LINE
  8
4-2
 62
     7
  6
CONTINUOUS
 10
53314.559
 20
30419.4801
 11
65907.8358
 21
30419.4801
  0
LINE
  8
4-2
 62
     7
  6
CONTINUOUS
 10
53312.862
 20
31234.3027
 11
68719.3878
 21
31234.3027
  0
LINE
  8
4-2
 62
     7
  6
CONTINUOUS
 10
66568.0966
 20
30419.4802
 11
69660.1272
 21
30419.4802
  0
LINE
  8
4-2
 62
     7
  6
CONTINUOUS
 10
43848.0966
 20
30210.1918
 11
43848.0966
 21
30419.481
  0
LINE
  8
4-2
 62
     7
  6
CONTINUOUS
 10
43848.0966
 20
30419.481
 11
51048.3498
 21
30419.481
  0
LINE
  8
4-2
 62
     7
  6
DASHDOT
 10
13392.5385
 20
33585.5906
 11
13392.5385
 21
34279.2447
  0
LINE
  8
4-2
 62
     7
  6
CONTINUOUS
 10
40774.9563
 20
36081.9034
 11
40774.9563
 21
29052.5897
  0
LINE
  8
4-2
 62
     7
  6
CONTINUOUS
 10
30834.9563
 20
36081.9034
 11
30834.9563
 21
29052.5897
  0
LINE
  8
4-2
 62
     7
  6
CONTINUOUS
 10
34564.1816
 20
48652.937
 11
34564.1816
 21
47813.5777
  0
LINE
  8
4-2
 62
     7
  6
DOT
 10
33681.3197
 20
48840.3703
 11
33455.3658
 21
48840.3703
  0
LINE
  8
4-2
 62
     7
  6
CONTINUOUS
 10
32841.1211
 20
48652.937
 11
32841.1211
 21
48446.2342
  0
LINE
  8
4-2
 62
     7
  6
CONTINUOUS
 10
33681.3197
 20
48652.937
 11
33681.3197
 21
48446.2342
  0
LINE
  8
4-2
 62
     7
  6
DOT
 10
33681.3197
 20
49025.5438
 11
33681.3197
 21
48652.937
  0
LINE
  8
4-2
 62
     7
  6
DOT
 10
33455.3658
 20
49025.5438
 11
33455.3658
 21
48652.937
  0
LINE
  8
4-2
 62
     7
  6
CONTINUOUS
 10
33032.446
 20
48125.2101
 11
34637.2388
 21
48125.2101
  0
LINE
  8
4-2
 62
     7
  6
CONTINUOUS
 10
35427.0943
 20
52053.6891
 11
35427.0943
 21
51448.7653
  0
LINE
  8
4-2
 62
     7
  6
DOT
 10
35427.0943
 20
53343.9088
 11
35427.0943
 21
52167.286
  0
LINE
  8
4-2
 62
     7
  6
DOT
 10
32368.665
 20
53343.9088
 11
35427.0943
 21
53343.9088
  0
LINE
  8
4-2
 62
     7
  6
DOT
 10
30834.9562
 20
51452.6792
 11
30834.9563
 21
49730.5285
  0
LINE
  8
4-2
 62
     7
  6
CONTINUOUS
 10
68633.4978
 20
33551.2399
 11
68805.2478
 21
33722.9999
  0
LINE
  8
4-2
 62
     7
  6
CONTINUOUS
 10
69574.2372
 20
33551.2399
 11
69745.9872
 21
33722.9999
  0
LINE
  8
4-2
 62
     7
  6
DASHDOT
 10
68776.1878
 20
33637.1199
 11
69603.3272
 21
33637.1199
  0
LINE
  8
4-2
 62
     7
  6
CONTINUOUS
 10
69660.1272
 20
37343.3364
 11
69660.1272
 21
37202.4973
  0
LINE
  8
4-2
 62
     7
  6
CONTINUOUS
 10
69002.2305
 20
38001.2331
 11
69660.1272
 21
37343.3364
  0
LINE
  8
4-2
 62
     7
  6
CONTINUOUS
 10
69660.1273
 20
35418.4722
 11
69660.1273
 21
37042.4973
  0
LINE
  8
4-2
 62
     7
  6
CONTINUOUS
 10
69660.1273
 20
34718.4722
 11
69260.1272
 21
35368.4722
  0
LINE
  8
4-2
 62
     7
  6
CONTINUOUS
 10
69760.1272
 20
35518.4722
 11
69560.1272
 21
35318.4722
  0
LINE
  8
4-2
 62
     7
  6
CONTINUOUS
 10
69560.1272
 20
35518.4722
 11
69760.1272
 21
35318.4722
  0
LINE
  8
4-2
 62
     7
  6
CONTINUOUS
 10
68719.3878
 20
34718.4722
 11
68319.3878
 21
35368.4722
  0
LINE
  8
4-2
 62
     7
  6
CONTINUOUS
 10
68819.3878
 20
35518.4722
 11
68619.3878
 21
35318.4722
  0
LINE
  8
4-2
 62
     7
  6
CONTINUOUS
 10
68619.3878
 20
35518.4722
 11
68819.3878
 21
35318.4722
  0
LINE
  8
4-2
 62
     7
  6
CONTINUOUS
 10
71167.0941
 20
38060.8771
 11
71167.0941
 21
38560.8771
  0
LINE
  8
4-2
 62
     7
  6
CONTINUOUS
 10
70162.0146
 20
38560.8771
 11
70162.0146
 21
38060.8771
  0
LINE
  8
4-2
 62
     7
  6
CONTINUOUS
 10
71157.3303
 20
38060.8771
 11
70157.3303
 21
38060.8771
  0
LINE
  8
4-2
 62
     7
  6
CONTINUOUS
 10
70157.3303
 20
38560.8771
 11
71157.3303
 21
38560.8771
  0
LINE
  8
4-2
 62
     7
  6
CONTINUOUS
 10
70663.8183
 20
34335.8802
 11
70663.8183
 21
34735.8802
  0
LINE
  8
4-2
 62
     7
  6
CONTINUOUS
 10
71363.8183
 20
34335.8802
 11
71363.8183
 21
34735.8802
  0
LINE
  8
4-2
 62
     7
  6
CONTINUOUS
 10
70663.8183
 20
34335.8802
 11
71363.8183
 21
34335.8802
  0
LINE
  8
4-2
 62
     7
  6
CONTINUOUS
 10
70663.8183
 20
34735.8802
 11
71363.8183
 21
34735.8802
  0
LINE
  8
4-2
 62
     7
  6
DASHDOT
 10
66797.9384
 20
39313.5605
 11
71630.7862
 21
39313.5605
  0
LINE
  8
4-2
 62
     7
  6
CONTINUOUS
 10
68719.3878
 20
37884.0758
 11
68719.3878
 21
35418.4722
  0
LINE
  8
4-2
 62
     7
  6
CONTINUOUS
 10
68719.3878
 20
34718.4722
 11
68719.3878
 21
33693.9199
  0
LINE
  8
4-2
 62
     7
  6
CONTINUOUS
 10
69660.1272
 20
34718.4722
 11
69660.1272
 21
33693.9199
  0
LINE
  8
4-2
 62
     7
  6
CONTINUOUS
 10
69660.1272
 20
33573.0276
 11
69660.1272
 21
30419.4802
  0
LINE
  8
4-2
 62
     7
  6
CONTINUOUS
 10
68719.3878
 20
33573.0276
 11
68719.3878
 21
31234.3027
  0
LINE
  8
4-2
 62
     7
  6
DASHDOT
 10
53162.862
 20
31756.2903
 11
53162.862
 21
30052.2087
  0
LINE
  8
4-2
 62
     7
  6
CONTINUOUS
 10
52134.9562
 20
30419.4801
 11
53014.559
 21
30419.4801
  0
LINE
  8
4-2
 62
     7
  6
CONTINUOUS
 10
52284.9562
 20
31234.3027
 11
53012.862
 21
31234.3027
  0
LINE
  8
4-2
 62
     7
  6
CONTINUOUS
 10
75098.9276
 20
50312.1532
 11
75818.9276
 21
50312.1532
  0
LINE
  8
4-2
 62
     7
  6
CONTINUOUS
 10
75098.9276
 20
49912.1532
 11
75818.9276
 21
49912.1532
  0
LINE
  8
4-2
 62
     7
  6
CONTINUOUS
 10
75818.9276
 20
49912.1532
 11
75818.9276
 21
50312.1532
  0
LINE
  8
4-2
 62
     7
  6
CONTINUOUS
 10
75098.9276
 20
49912.1532
 11
75098.9276
 21
50312.1532
  0
LINE
  8
4-2
 62
     7
  6
CONTINUOUS
 10
75180.883
 20
50822.9653
 11
75180.883
 21
50862.9653
  0
LINE
  8
4-2
 62
     7
  6
CONTINUOUS
 10
75480.883
 20
50812.9653
 11
75497.883
 21
50812.9653
  0
LINE
  8
4-2
 62
     7
  6
CONTINUOUS
 10
75480.883
 20
50822.9653
 11
75515.883
 21
50822.9653
  0
LINE
  8
4-2
 62
     7
  6
CONTINUOUS
 10
75480.883
 20
50832.9653
 11
75532.883
 21
50832.9653
  0
LINE
  8
4-2
 62
     7
  6
CONTINUOUS
 10
75480.883
 20
50872.9653
 11
75497.883
 21
50872.9653
  0
LINE
  8
4-2
 62
     7
  6
CONTINUOUS
 10
75480.883
 20
50862.9653
 11
75515.883
 21
50862.9653
  0
LINE
  8
4-2
 62
     7
  6
CONTINUOUS
 10
75480.883
 20
50852.9653
 11
75532.883
 21
50852.9653
  0
LINE
  8
4-2
 62
     7
  6
CONTINUOUS
 10
75180.883
 20
50842.9653
 11
75780.883
 21
50842.9653
  0
LINE
  8
4-2
 62
     7
  6
CONTINUOUS
 10
75480.883
 20
50882.9653
 11
75549.883
 21
50842.9653
  0
LINE
  8
4-2
 62
     7
  6
CONTINUOUS
 10
75480.883
 20
50802.9653
 11
75549.883
 21
50842.9653
  0
LINE
  8
4-2
 62
     7
  6
CONTINUOUS
 10
75480.883
 20
50802.9653
 11
75480.883
 21
50882.9653
  0
LINE
  8
4-2
 62
     7
  6
CONTINUOUS
 10
75130.883
 20
51232.9653
 11
75850.883
 21
51232.9653
  0
LINE
  8
4-2
 62
     7
  6
CONTINUOUS
 10
75130.883
 20
50782.9653
 11
75850.883
 21
50782.9653
  0
LINE
  8
4-2
 62
     7
  6
CONTINUOUS
 10
75850.883
 20
50782.9653
 11
75850.883
 21
51232.9653
  0
LINE
  8
4-2
 62
     7
  6
CONTINUOUS
 10
75130.883
 20
50782.9653
 11
75130.883
 21
51232.9653
  0
LINE
  8
4-2
 62
     7
  6
CONTINUOUS
 10
75131.2266
 20
52935.0519
 11
75851.2266
 21
52935.0519
  0
LINE
  8
4-2
 62
     7
  6
CONTINUOUS
 10
75131.2266
 20
52535.0519
 11
75851.2266
 21
52535.0519
  0
LINE
  8
4-2
 62
     7
  6
CONTINUOUS
 10
75851.2266
 20
52535.0519
 11
75851.2266
 21
52935.0519
  0
LINE
  8
4-2
 62
     7
  6
CONTINUOUS
 10
75131.2266
 20
52535.0519
 11
75131.2266
 21
52935.0519
  0
LINE
  8
4-2
 62
     7
  6
CONTINUOUS
 10
75135.1833
 20
51699.0086
 11
75135.1833
 21
51739.0086
  0
LINE
  8
4-2
 62
     7
  6
CONTINUOUS
 10
75435.1833
 20
51689.0086
 11
75452.1833
 21
51689.0086
  0
LINE
  8
4-2
 62
     7
  6
CONTINUOUS
 10
75435.1833
 20
51699.0086
 11
75470.1833
 21
51699.0086
  0
LINE
  8
4-2
 62
     7
  6
CONTINUOUS
 10
75435.1833
 20
51709.0086
 11
75487.1833
 21
51709.0086
  0
LINE
  8
4-2
 62
     7
  6
CONTINUOUS
 10
75435.1833
 20
51749.0086
 11
75452.1833
 21
51749.0086
  0
LINE
  8
4-2
 62
     7
  6
CONTINUOUS
 10
75435.1833
 20
51739.0086
 11
75470.1833
 21
51739.0086
  0
LINE
  8
4-2
 62
     7
  6
CONTINUOUS
 10
75435.1833
 20
51729.0086
 11
75487.1833
 21
51729.0086
  0
LINE
  8
4-2
 62
     7
  6
CONTINUOUS
 10
75135.1833
 20
51719.0086
 11
75735.1833
 21
51719.0086
  0
LINE
  8
4-2
 62
     7
  6
CONTINUOUS
 10
75435.1833
 20
51759.0086
 11
75504.1833
 21
51719.0086
  0
LINE
  8
4-2
 62
     7
  6
CONTINUOUS
 10
75435.1833
 20
51679.0086
 11
75504.1833
 21
51719.0086
  0
LINE
  8
4-2
 62
     7
  6
CONTINUOUS
 10
75435.1833
 20
51679.0086
 11
75435.1833
 21
51759.0086
  0
LINE
  8
4-2
 62
     7
  6
CONTINUOUS
 10
75085.1833
 20
52109.0086
 11
75805.1833
 21
52109.0086
  0
LINE
  8
4-2
 62
     7
  6
CONTINUOUS
 10
75085.1833
 20
51659.0086
 11
75805.1833
 21
51659.0086
  0
LINE
  8
4-2
 62
     7
  6
CONTINUOUS
 10
75805.1833
 20
51659.0086
 11
75805.1833
 21
52109.0086
  0
LINE
  8
4-2
 62
     7
  6
CONTINUOUS
 10
75085.1833
 20
51659.0086
 11
75085.1833
 21
52109.0086
  0
LINE
  8
4-2
 62
     7
  6
CONTINUOUS
 10
75435.1833
 20
51939.0086
 11
75435.1833
 21
52009.0086
  0
LINE
  8
4-2
 62
     7
  6
CONTINUOUS
 10
75385.1833
 20
51839.0086
 11
75485.1833
 21
51839.0086
  0
LINE
  8
4-2
 62
     7
  6
CONTINUOUS
 10
75355.1833
 20
51889.0086
 11
75515.1833
 21
51889.0086
  0
LINE
  8
4-2
 62
     7
  6
CONTINUOUS
 10
75315.1833
 20
51939.0086
 11
75555.1833
 21
51939.0086
  0
LINE
  8
4-2
 62
     7
  6
CONTINUOUS
 10
75133.9755
 20
55563.1818
 11
75853.9755
 21
55563.1818
  0
LINE
  8
4-2
 62
     7
  6
CONTINUOUS
 10
75133.9755
 20
55163.1818
 11
75853.9755
 21
55163.1818
  0
LINE
  8
4-2
 62
     7
  6
CONTINUOUS
 10
75853.9755
 20
55163.1818
 11
75853.9755
 21
55563.1818
  0
LINE
  8
4-2
 62
     7
  6
CONTINUOUS
 10
75133.9755
 20
55163.1818
 11
75133.9755
 21
55563.1818
  0
LINE
  8
4-2
 62
     7
  6
CONTINUOUS
 10
75133.9756
 20
56044.323
 11
75133.9756
 21
56444.323
  0
LINE
  8
4-2
 62
     7
  6
CONTINUOUS
 10
75833.9756
 20
56044.323
 11
75833.9756
 21
56444.323
  0
LINE
  8
4-2
 62
     7
  6
CONTINUOUS
 10
75133.9756
 20
56044.323
 11
75833.9756
 21
56044.323
  0
LINE
  8
4-2
 62
     7
  6
CONTINUOUS
 10
75133.9756
 20
56444.323
 11
75833.9756
 21
56444.323
  0
LINE
  8
4-2
 62
     7
  6
CONTINUOUS
 10
75085.1833
 20
54287.1385
 11
75085.1833
 21
54687.1385
  0
LINE
  8
4-2
 62
     7
  6
CONTINUOUS
 10
75805.1833
 20
54287.1385
 11
75805.1833
 21
54687.1385
  0
LINE
  8
4-2
 62
     7
  6
CONTINUOUS
 10
75085.1833
 20
54287.1385
 11
75805.1833
 21
54287.1385
  0
LINE
  8
4-2
 62
     7
  6
CONTINUOUS
 10
75085.1833
 20
54687.1385
 11
75805.1833
 21
54687.1385
  0
LINE
  8
4-2
 62
     7
  6
CONTINUOUS
 10
75315.1833
 20
53579.5189
 11
75555.1833
 21
53579.5189
  0
LINE
  8
4-2
 62
     7
  6
CONTINUOUS
 10
75355.1833
 20
53529.5189
 11
75515.1833
 21
53529.5189
  0
LINE
  8
4-2
 62
     7
  6
CONTINUOUS
 10
75385.1833
 20
53479.5189
 11
75485.1833
 21
53479.5189
  0
LINE
  8
4-2
 62
     7
  6
CONTINUOUS
 10
75435.1833
 20
53579.5189
 11
75435.1833
 21
53649.5189
  0
LINE
  8
4-2
 62
     7
  6
CONTINUOUS
 10
75085.1833
 20
53349.5189
 11
75085.1833
 21
53749.5189
  0
LINE
  8
4-2
 62
     7
  6
CONTINUOUS
 10
75805.1833
 20
53349.5189
 11
75805.1833
 21
53749.5189
  0
LINE
  8
4-2
 62
     7
  6
CONTINUOUS
 10
75085.1833
 20
53349.5189
 11
75805.1833
 21
53349.5189
  0
LINE
  8
4-2
 62
     7
  6
CONTINUOUS
 10
75085.1833
 20
53749.5189
 11
75805.1833
 21
53749.5189
  0
LINE
  8
4-2
 62
     7
  6
CONTINUOUS
 10
46093.1569
 20
52297.0303
 11
82047.06
 21
52297.0303
  0
LINE
  8
4-2
 62
     7
  6
CONTINUOUS
 10
47332.2147
 20
57553.29
 11
47332.2147
 21
46164.7273
  0
LINE
  8
4-2
 62
     7
  6
CONTINUOUS
 10
74856.2794
 20
57553.29
 11
74856.2794
 21
46164.7273
  0
LINE
  8
4-2
 62
     7
  6
CONTINUOUS
 10
67665.4987
 20
57553.29
 11
67665.4987
 21
46164.7273
  0
LINE
  8
4-2
 62
     7
  6
CONTINUOUS
 10
60474.7181
 20
57553.29
 11
60474.7181
 21
46164.7273
  0
LINE
  8
4-2
 62
     7
  6
CONTINUOUS
 10
53283.9375
 20
57553.29
 11
53283.9375
 21
46164.7273
  0
LINE
  8
4-2
 62
     7
  6
CONTINUOUS
 10
54522.9953
 20
57553.29
 11
54522.9953
 21
46164.7273
  0
LINE
  8
4-2
 62
     7
  6
CONTINUOUS
 10
61713.7759
 20
57553.29
 11
61713.7759
 21
46164.7273
  0
LINE
  8
4-2
 62
     7
  6
CONTINUOUS
 10
68904.5565
 20
57553.29
 11
68904.5565
 21
46164.7273
  0
LINE
  8
4-2
 62
     7
  6
CONTINUOUS
 10
76095.3372
 20
57553.29
 11
76095.3372
 21
46164.7273
  0
LINE
  8
4-2
 62
     7
  6
CONTINUOUS
 10
46093.1569
 20
46164.7273
 11
82047.06
 21
46164.7273
  0
LINE
  8
4-2
 62
     7
  6
CONTINUOUS
 10
46093.1569
 20
47040.7705
 11
82047.06
 21
47040.7705
  0
LINE
  8
4-2
 62
     7
  6
CONTINUOUS
 10
46093.1569
 20
47916.8138
 11
82047.06
 21
47916.8138
  0
LINE
  8
4-2
 62
     7
  6
CONTINUOUS
 10
46093.1569
 20
56677.2467
 11
82047.06
 21
56677.2467
  0
LINE
  8
4-2
 62
     7
  6
CONTINUOUS
 10
46093.1569
 20
55801.2034
 11
82047.06
 21
55801.2034
  0
LINE
  8
4-2
 62
     7
  6
CONTINUOUS
 10
46093.1569
 20
54925.1601
 11
82047.06
 21
54925.1601
  0
LINE
  8
4-2
 62
     7
  6
CONTINUOUS
 10
46093.1569
 20
54049.1168
 11
82047.06
 21
54049.1168
  0
LINE
  8
4-2
 62
     7
  6
CONTINUOUS
 10
46093.1569
 20
53173.0736
 11
82047.06
 21
53173.0736
  0
LINE
  8
4-2
 62
     7
  6
CONTINUOUS
 10
46093.1569
 20
51420.987
 11
82047.06
 21
51420.987
  0
LINE
  8
4-2
 62
     7
  6
CONTINUOUS
 10
46093.1569
 20
50544.9437
 11
82047.06
 21
50544.9437
  0
LINE
  8
4-2
 62
     7
  6
CONTINUOUS
 10
46093.1569
 20
49668.9004
 11
82047.06
 21
49668.9004
  0
LINE
  8
4-2
 62
     7
  6
CONTINUOUS
 10
46093.1569
 20
48792.8571
 11
82047.06
 21
48792.8571
  0
LINE
  8
4-2
 62
     7
  6
CONTINUOUS
 10
47079.0663
 20
24912.4203
 11
47250.8163
 21
25084.1703
  0
LINE
  8
4-2
 62
     7
  6
CONTINUOUS
 10
47164.9563
 20
25069.2903
 11
47164.9563
 21
27679.5918
  0
LINE
  8
4-2
 62
     7
  6
CONTINUOUS
 10
41484.9563
 20
27679.5927
 11
41484.9563
 21
25111.2561
  0
LINE
  8
4-2
 62
     7
  6
CONTINUOUS
 10
41384.9563
 20
25111.2561
 11
41584.9563
 21
25111.2561
  0
LINE
  8
4-2
 62
     7
  6
CONTINUOUS
 10
41384.9563
 20
25011.2561
 11
41584.9563
 21
25011.2561
  0
LINE
  8
4-2
 62
     7
  6
CONTINUOUS
 10
41484.9563
 20
25011.2561
 11
41484.9563
 21
24936.2561
  0
LINE
  8
4-2
 62
     7
  6
CONTINUOUS
 10
51048.3498
 20
31234.3027
 11
51984.9562
 21
31234.3027
  0
LINE
  8
4-2
 62
     7
  6
CONTINUOUS
 10
51048.3498
 20
30419.481
 11
51048.3498
 21
31234.3027
  0
LINE
  8
4-2
 62
     7
  6
CONTINUOUS
 10
43187.8358
 20
30419.481
 11
40774.9563
 21
30419.4811
  0
LINE
  8
4-2
 62
     7
  6
CONTINUOUS
 10
42904.9563
 20
29052.5897
 11
47164.9563
 21
29052.5897
  0
LINE
  8
4-2
 62
     7
  6
CONTINUOUS
 10
38644.9563
 20
29052.5897
 11
41484.9563
 21
29052.5897
  0
LINE
  8
4-2
 62
     7
  6
CONTINUOUS
 10
43187.8358
 20
30212.5298
 11
43187.8358
 21
30419.481
  0
LINE
  8
4-2
 62
     7
  6
CONTINUOUS
 10
43187.8358
 20
30092.5298
 11
43187.8358
 21
30212.5298
  0
LINE
  8
4-2
 62
     7
  6
CONTINUOUS
 10
43514.9563
 20
29771.67
 11
43514.9563
 21
30228.0974
  0
LINE
  8
4-2
 62
     7
  6
CONTINUOUS
 10
43848.0966
 20
30090.1918
 11
43848.0966
 21
30210.1918
  0
LINE
  8
4-2
 62
     7
  6
DASHDOT
 10
50227.8996
 20
35807.7645
 11
50227.8996
 21
34279.2447
  0
LINE
  8
4-2
 62
     7
  6
DASHDOT
 10
40849.9563
 20
34279.2447
 11
50227.8996
 21
34279.2447
  0
LINE
  8
4-2
 62
     7
  6
CONTINUOUS
 10
52134.9563
 20
39695.29
 11
52134.9563
 21
38920.5539
  0
LINE
  8
4-2
 62
     7
  6
CONTINUOUS
 10
52134.9563
 20
39695.29
 11
27517.24
 21
39695.29
  0
LINE
  8
4-2
 62
     7
  6
CONTINUOUS
 10
65907.8358
 20
30212.5289
 11
65907.8358
 21
30419.4801
  0
LINE
  8
4-2
 62
     7
  6
CONTINUOUS
 10
65907.8358
 20
30092.5289
 11
65907.8358
 21
30212.5289
  0
LINE
  8
4-2
 62
     7
  6
CONTINUOUS
 10
66234.9563
 20
29771.6691
 11
66234.9563
 21
30228.0965
  0
LINE
  8
4-2
 62
     7
  6
CONTINUOUS
 10
66568.0966
 20
30210.1909
 11
66568.0966
 21
30419.4802
  0
LINE
  8
4-2
 62
     7
  6
CONTINUOUS
 10
66568.0966
 20
30090.1909
 11
66568.0966
 21
30210.1909
  0
LINE
  8
4-2
 62
     7
  6
CONTINUOUS
 10
62784.9563
 20
29052.5897
 11
69884.9563
 21
29052.5897
  0
LINE
  8
4-2
 62
     7
  6
CONTINUOUS
 10
62784.9563
 20
28379.5918
 11
62784.9563
 21
29052.5897
  0
LINE
  8
4-2
 62
     7
  6
CONTINUOUS
 10
69884.9563
 20
29052.5897
 11
69884.9563
 21
28360.157
  0
LINE
  8
4-2
 62
     7
  6
CONTINUOUS
 10
69799.0663
 20
24912.4203
 11
69970.8163
 21
25084.1703
  0
LINE
  8
4-2
 62
     7
  6
CONTINUOUS
 10
69884.9563
 20
27679.5918
 11
69884.9563
 21
25069.2903
  0
LINE
  8
4-2
 62
     7
  6
CONTINUOUS
 10
69884.9563
 20
27679.5918
 11
69484.9563
 21
28329.5919
  0
LINE
  8
4-2
 62
     7
  6
CONTINUOUS
 10
69984.9563
 20
28479.5918
 11
69784.9563
 21
28279.5918
  0
LINE
  8
4-2
 62
     7
  6
CONTINUOUS
 10
69784.9563
 20
28479.5918
 11
69984.9563
 21
28279.5918
  0
LINE
  8
4-2
 62
     7
  6
CONTINUOUS
 10
68464.9563
 20
29052.5897
 11
68464.9563
 21
28360.157
  0
LINE
  8
4-2
 62
     7
  6
CONTINUOUS
 10
66959.0663
 20
24912.4203
 11
67130.8163
 21
25084.1703
  0
LINE
  8
4-2
 62
     7
  6
CONTINUOUS
 10
67044.9563
 20
27679.5918
 11
67044.9563
 21
25069.2903
  0
LINE
  8
4-2
 62
     7
  6
CONTINUOUS
 10
67044.9563
 20
29052.5897
 11
67044.9563
 21
28360.157
  0
LINE
  8
4-2
 62
     7
  6
CONTINUOUS
 10
67044.9563
 20
27679.5918
 11
66644.9563
 21
28329.5919
  0
LINE
  8
4-2
 62
     7
  6
CONTINUOUS
 10
67144.9563
 20
28479.5918
 11
66944.9563
 21
28279.5918
  0
LINE
  8
4-2
 62
     7
  6
CONTINUOUS
 10
66944.9563
 20
28479.5918
 11
67144.9563
 21
28279.5918
  0
LINE
  8
4-2
 62
     7
  6
CONTINUOUS
 10
68364.9563
 20
28479.5918
 11
68564.9563
 21
28279.5918
  0
LINE
  8
4-2
 62
     7
  6
CONTINUOUS
 10
68564.9563
 20
28479.5918
 11
68364.9563
 21
28279.5918
  0
LINE
  8
4-2
 62
     7
  6
CONTINUOUS
 10
68464.9563
 20
27679.5918
 11
68064.9563
 21
28329.5919
  0
LINE
  8
4-2
 62
     7
  6
CONTINUOUS
 10
68464.9563
 20
27679.5918
 11
68464.9563
 21
25069.2903
  0
LINE
  8
4-2
 62
     7
  6
CONTINUOUS
 10
68379.0663
 20
24912.4203
 11
68550.8163
 21
25084.1703
  0
LINE
  8
4-2
 62
     7
  6
CONTINUOUS
 10
65539.0663
 20
24912.4203
 11
65710.8163
 21
25084.1703
  0
LINE
  8
4-2
 62
     7
  6
CONTINUOUS
 10
65624.9563
 20
27679.5918
 11
65624.9563
 21
25069.2903
  0
LINE
  8
4-2
 62
     7
  6
CONTINUOUS
 10
65624.9563
 20
29052.5897
 11
65624.9563
 21
28360.157
  0
LINE
  8
4-2
 62
     7
  6
CONTINUOUS
 10
65624.9563
 20
27679.5918
 11
65224.9563
 21
28329.5919
  0
LINE
  8
4-2
 62
     7
  6
CONTINUOUS
 10
65724.9563
 20
28479.5918
 11
65524.9563
 21
28279.5918
  0
LINE
  8
4-2
 62
     7
  6
CONTINUOUS
 10
65524.9563
 20
28479.5918
 11
65724.9563
 21
28279.5918
  0
LINE
  8
4-2
 62
     7
  6
DASHDOT
 10
30909.9563
 20
34279.2447
 11
40699.9563
 21
34279.2447
  0
LINE
  8
4-2
 62
     7
  6
DASHDOT
 10
18129.9562
 20
34279.2447
 11
30759.9563
 21
34279.2447
  0
LINE
  8
4-2
 62
     7
  6
DASHDOT
 10
13392.5385
 20
34279.2447
 11
17979.9562
 21
34279.2447
  0
LINE
  8
4-2
 62
     7
  6
CONTINUOUS
 10
70594.9563
 20
7576.5309
 11
70594.9563
 21
24345.9186
  0
LINE
  8
4-2
 62
     7
  6
CONTINUOUS
 10
10954.9563
 20
9596.939
 11
70594.9563
 21
9596.939
  0
LINE
  8
4-2
 62
     7
  6
CONTINUOUS
 10
10954.9563
 20
16870.4084
 11
70594.9563
 21
16870.4084
  0
LINE
  8
4-2
 62
     7
  6
CONTINUOUS
 10
10954.9563
 20
15052.0411
 11
70594.9563
 21
15052.0411
  0
LINE
  8
4-2
 62
     7
  6
CONTINUOUS
 10
70594.9563
 20
22679.0819
 11
10954.9563
 21
22679.0819
  0
LINE
  8
4-2
 62
     7
  6
CONTINUOUS
 10
12848.2896
 20
21012.2452
 11
70594.9563
 21
21012.2452
  0
LINE
  8
4-2
 62
     7
  6
CONTINUOUS
 10
12374.9563
 20
13233.6737
 11
70594.9563
 21
13233.6737
  0
LINE
  8
4-2
 62
     7
  6
CONTINUOUS
 10
11901.6229
 20
18688.7758
 11
70594.9563
 21
18688.7758
  0
LINE
  8
4-2
 62
     7
  6
CONTINUOUS
 10
10954.9563
 20
8236.256
 11
70594.9563
 21
8236.256
  0
LINE
  8
4-2
 62
     7
  6
DASHDOT
 10
58358.5042
 20
26780.1339
 11
59390.6801
 21
26780.1339
  0
LINE
  8
4-2
 62
     7
  6
DASHDOT
 10
59390.6801
 20
30052.2087
 11
59390.6801
 21
26780.1339
  0
LINE
  8
4-2
 62
     7
  6
DASHDOT
 10
53162.862
 20
30052.2087
 11
59390.6801
 21
30052.2087
  0
LINE
  8
4-2
 62
     7
  6
DOT
 10
54111.5057
 20
26780.1339
 11
58358.5042
 21
26780.1339
  0
LINE
  8
4-2
 62
     7
  6
CONTINUOUS
 10
52812.862
 20
32156.2903
 11
53512.862
 21
32156.2903
  0
LINE
  8
4-2
 62
     7
  6
CONTINUOUS
 10
52812.862
 20
31756.2903
 11
53512.862
 21
31756.2903
  0
LINE
  8
4-2
 62
     7
  6
CONTINUOUS
 10
53512.862
 20
31756.2903
 11
53512.862
 21
32156.2903
  0
LINE
  8
4-2
 62
     7
  6
CONTINUOUS
 10
52812.862
 20
31756.2903
 11
52812.862
 21
32156.2903
  0
LINE
  8
4-2
 62
     7
  6
CONTINUOUS
 10
53512.862
 20
31956.2903
 11
53925.9795
 21
31956.2903
  0
LINE
  8
4-2
 62
     7
  6
CONTINUOUS
 10
52134.9363
 20
31956.2903
 11
52812.862
 21
31956.2903
  0
LINE
  8
4-2
 62
     7
  6
CONTINUOUS
 10
33281.798
 20
42947.3703
 11
35036.6037
 21
42947.3703
  0
LINE
  8
4-2
 62
     7
  6
CONTINUOUS
 10
54264.6618
 20
27013.8217
 11
54264.6618
 21
27133.8217
  0
LINE
  8
4-2
 62
     7
  6
CONTINUOUS
 10
54264.6618
 20
26473.8217
 11
53964.6618
 21
27073.8217
  0
LINE
  8
4-2
 62
     7
  6
CONTINUOUS
 10
54264.6618
 20
26223.7877
 11
54264.6618
 21
26473.8217
  0
LINE
  8
4-2
 62
     7
  6
CONTINUOUS
 10
54264.6618
 20
25423.7877
 11
54264.6618
 21
25111.2553
  0
LINE
  8
4-2
 62
     7
  6
CONTINUOUS
 10
54164.6618
 20
25111.2553
 11
54364.6618
 21
25111.2553
  0
LINE
  8
4-2
 62
     7
  6
CONTINUOUS
 10
54164.6618
 20
25011.2553
 11
54364.6618
 21
25011.2553
  0
LINE
  8
4-2
 62
     7
  6
CONTINUOUS
 10
54264.6618
 20
25011.2553
 11
54264.6618
 21
24936.2553
  0
LINE
  8
4-2
 62
     7
  6
CONTINUOUS
 10
54264.6618
 20
27133.8217
 11
54264.6618
 21
27374.5219
  0
LINE
  8
4-2
 62
     7
  6
CONTINUOUS
 10
54264.9563
 20
27679.5918
 11
54264.9563
 21
27374.5219
  0
LINE
  8
4-2
 62
     7
  6
DASHDOT
 10
30679.59
 20
44373.7604
 11
30143.0685
 21
44373.7604
  0
LINE
  8
4-2
 62
     7
  6
DASHDOT
 10
30143.0685
 20
47596.0293
 11
30143.0685
 21
44373.7604
  0
LINE
  8
4-2
 62
     7
  6
DASHDOT
 10
30618.9954
 20
47596.0293
 11
30143.0685
 21
47596.0293
  0
LINE
  8
4-2
 62
     7
  6
DASHDOT
 10
38867.8996
 20
35807.7645
 11
38867.8996
 21
34279.2447
  0
LINE
  8
4-2
 62
     7
  6
DASHDOT
 10
28927.8996
 20
35807.7645
 11
28927.8996
 21
34279.2447
  0
LINE
  8
4-2
 62
     7
  6
DASHDOT
 10
16147.8996
 20
35807.7645
 11
16147.8996
 21
34279.2447
  0
LINE
  8
4-2
 62
     7
  6
CONTINUOUS
 10
13262.5385
 20
33415.5906
 11
13502.5385
 21
33415.5906
  0
LINE
  8
4-2
 62
     7
  6
CONTINUOUS
 10
13302.5385
 20
33365.5906
 11
13462.5385
 21
33365.5906
  0
LINE
  8
4-2
 62
     7
  6
CONTINUOUS
 10
13332.5385
 20
33315.5906
 11
13432.5385
 21
33315.5906
  0
LINE
  8
4-2
 62
     7
  6
CONTINUOUS
 10
13382.5385
 20
33415.5906
 11
13382.5385
 21
33485.5906
  0
LINE
  8
4-2
 62
     7
  6
CONTINUOUS
 10
13032.5385
 20
33185.5906
 11
13032.5385
 21
33585.5906
  0
LINE
  8
4-2
 62
     7
  6
CONTINUOUS
 10
13752.5385
 20
33185.5906
 11
13752.5385
 21
33585.5906
  0
LINE
  8
4-2
 62
     7
  6
CONTINUOUS
 10
13032.5385
 20
33185.5906
 11
13752.5385
 21
33185.5906
  0
LINE
  8
4-2
 62
     7
  6
CONTINUOUS
 10
13032.5385
 20
33585.5906
 11
13752.5385
 21
33585.5906
  0
LINE
  8
4-2
 62
     7
  6
CONTINUOUS
 10
35804.9563
 20
25011.2561
 11
35804.9563
 21
24936.2561
  0
LINE
  8
4-2
 62
     7
  6
CONTINUOUS
 10
35704.9563
 20
25011.2561
 11
35904.9563
 21
25011.2561
  0
LINE
  8
4-2
 62
     7
  6
CONTINUOUS
 10
35704.9563
 20
25111.2561
 11
35904.9563
 21
25111.2561
  0
LINE
  8
4-2
 62
     7
  6
CONTINUOUS
 10
35804.9563
 20
27679.5927
 11
35804.9563
 21
25111.2561
  0
LINE
  8
4-2
 62
     7
  6
CONTINUOUS
 10
23024.9563
 20
27679.5927
 11
23024.9563
 21
25111.2561
  0
LINE
  8
4-2
 62
     7
  6
CONTINUOUS
 10
22924.9563
 20
25111.2561
 11
23124.9563
 21
25111.2561
  0
LINE
  8
4-2
 62
     7
  6
CONTINUOUS
 10
22924.9563
 20
25011.2561
 11
23124.9563
 21
25011.2561
  0
LINE
  8
4-2
 62
     7
  6
CONTINUOUS
 10
23024.9563
 20
25011.2561
 11
23024.9563
 21
24936.2561
  0
LINE
  8
4-2
 62
     7
  6
CONTINUOUS
 10
47164.9563
 20
29052.5897
 11
47164.9563
 21
28360.157
  0
LINE
  8
4-2
 62
     7
  6
CONTINUOUS
 10
35804.9563
 20
29052.5897
 11
35804.9563
 21
28360.157
  0
LINE
  8
4-2
 62
     7
  6
CONTINUOUS
 10
25864.9563
 20
29052.5897
 11
35804.9563
 21
29052.5897
  0
LINE
  8
4-2
 62
     7
  6
CONTINUOUS
 10
25864.9563
 20
28379.5918
 11
25864.9563
 21
29052.5897
  0
LINE
  8
4-2
 62
     7
  6
CONTINUOUS
 10
14504.9563
 20
29052.5897
 11
23024.9563
 21
29052.5897
  0
LINE
  8
4-2
 62
     7
  6
CONTINUOUS
 10
58524.9563
 20
27113.55
 11
58524.9563
 21
27374.5219
  0
LINE
  8
4-2
 62
     7
  6
CONTINUOUS
 10
57104.9563
 20
27133.8216
 11
57104.9563
 21
27374.5219
  0
LINE
  8
4-2
 62
     7
  6
CONTINUOUS
 10
55684.9563
 20
27133.8216
 11
55684.9563
 21
27374.5219
  0
LINE
  8
4-2
 62
     7
  6
CONTINUOUS
 10
54264.9563
 20
27679.5918
 11
53864.9563
 21
28329.5919
  0
LINE
  8
4-2
 62
     7
  6
CONTINUOUS
 10
55684.9563
 20
25011.2553
 11
55684.9563
 21
24936.2553
  0
LINE
  8
4-2
 62
     7
  6
CONTINUOUS
 10
55584.9563
 20
25011.2553
 11
55784.9563
 21
25011.2553
  0
LINE
  8
4-2
 62
     7
  6
CONTINUOUS
 10
55584.9563
 20
25111.2553
 11
55784.9563
 21
25111.2553
  0
LINE
  8
4-2
 62
     7
  6
CONTINUOUS
 10
57104.9563
 20
25011.2553
 11
57104.9563
 21
24936.2553
  0
LINE
  8
4-2
 62
     7
  6
CONTINUOUS
 10
57004.9563
 20
25011.2553
 11
57204.9563
 21
25011.2553
  0
LINE
  8
4-2
 62
     7
  6
CONTINUOUS
 10
57004.9563
 20
25111.2553
 11
57204.9563
 21
25111.2553
  0
LINE
  8
4-2
 62
     7
  6
CONTINUOUS
 10
58524.9563
 20
25011.2553
 11
58524.9563
 21
24936.2553
  0
LINE
  8
4-2
 62
     7
  6
CONTINUOUS
 10
58424.9563
 20
25011.2553
 11
58624.9563
 21
25011.2553
  0
LINE
  8
4-2
 62
     7
  6
CONTINUOUS
 10
58424.9563
 20
25111.2553
 11
58624.9563
 21
25111.2553
  0
LINE
  8
4-2
 62
     7
  6
CONTINUOUS
 10
55684.9562
 20
25423.7877
 11
55684.9563
 21
25111.2553
  0
LINE
  8
4-2
 62
     7
  6
CONTINUOUS
 10
57104.9563
 20
25423.7877
 11
57104.9563
 21
25111.2553
  0
LINE
  8
4-2
 62
     7
  6
CONTINUOUS
 10
58524.9562
 20
25423.7877
 11
58524.9563
 21
25111.2553
  0
LINE
  8
4-2
 62
     7
  6
CONTINUOUS
 10
55684.9563
 20
26223.7877
 11
55684.9563
 21
26473.8216
  0
LINE
  8
4-2
 62
     7
  6
CONTINUOUS
 10
55684.9563
 20
26473.8216
 11
55384.9563
 21
27073.8216
  0
LINE
  8
4-2
 62
     7
  6
CONTINUOUS
 10
55684.9563
 20
27013.8216
 11
55684.9563
 21
27133.8216
  0
LINE
  8
4-2
 62
     7
  6
CONTINUOUS
 10
57104.9563
 20
26223.7877
 11
57104.9563
 21
26473.8216
  0
LINE
  8
4-2
 62
     7
  6
CONTINUOUS
 10
57104.9563
 20
26473.8216
 11
56804.9563
 21
27073.8216
  0
LINE
  8
4-2
 62
     7
  6
CONTINUOUS
 10
57104.9563
 20
27013.8216
 11
57104.9563
 21
27133.8216
  0
LINE
  8
4-2
 62
     7
  6
CONTINUOUS
 10
58524.9563
 20
26223.7877
 11
58524.9563
 21
26453.55
  0
LINE
  8
4-2
 62
     7
  6
CONTINUOUS
 10
58524.9563
 20
26453.55
 11
58224.9563
 21
27053.55
  0
LINE
  8
4-2
 62
     7
  6
CONTINUOUS
 10
58524.9563
 20
26993.55
 11
58524.9563
 21
27113.55
  0
LINE
  8
4-2
 62
     7
  6
CONTINUOUS
 10
50004.9563
 20
29052.5897
 11
54264.9563
 21
29052.5897
  0
LINE
  8
4-2
 62
     7
  6
DOT
 10
40070.5097
 20
47813.5777
 11
41490.3136
 21
47813.5777
  0
LINE
  8
4-2
 62
     7
  6
CONTINUOUS
 10
36319.5768
 20
47813.5777
 11
39956.1334
 21
47813.5777
  0
LINE
  8
4-2
 62
     7
  6
CONTINUOUS
 10
39927.0031
 20
47726.7859
 11
40098.7531
 21
47898.5459
  0
LINE
  8
4-2
 62
     7
  6
DOT
 10
40069.693
 20
43870.1374
 11
41516.8115
 21
43870.1374
  0
LINE
  8
4-2
 62
     7
  6
DOT
 10
40069.693
 20
44152.2256
 11
41516.8115
 21
44152.2256
  0
LINE
  8
4-2
 62
     7
  6
DOT
 10
40069.693
 20
43590.4267
 11
41516.8115
 21
43590.4267
  0
LINE
  8
4-2
 62
     7
  6
DOT
 10
40069.693
 20
44434.3138
 11
41516.8115
 21
44434.3138
  0
LINE
  8
4-2
 62
     7
  6
DOT
 10
40069.693
 20
44877.1681
 11
41516.8115
 21
44877.1681
  0
LINE
  8
4-2
 62
     7
  6
CONTINUOUS
 10
39509.6365
 20
44877.1681
 11
39956.093
 21
44877.1681
  0
LINE
  8
4-2
 62
     7
  6
CONTINUOUS
 10
39275.8399
 20
43588.0491
 11
39956.093
 21
43588.0491
  0
LINE
  8
4-2
 62
     7
  6
CONTINUOUS
 10
38863.3601
 20
43870.1374
 11
39956.093
 21
43870.1374
  0
LINE
  8
4-2
 62
     7
  6
CONTINUOUS
 10
38359.13
 20
44152.2256
 11
39956.093
 21
44152.2256
  0
LINE
  8
4-2
 62
     7
  6
CONTINUOUS
 10
37843.1737
 20
44434.3138
 11
39956.093
 21
44434.3138
  0
LINE
  8
4-2
 62
     7
  6
CONTINUOUS
 10
39927.003
 20
43506.5789
 11
40098.753
 21
43678.3389
  0
LINE
  8
4-2
 62
     7
  6
CONTINUOUS
 10
39927.003
 20
43776.4155
 11
40098.753
 21
43948.1755
  0
LINE
  8
4-2
 62
     7
  6
CONTINUOUS
 10
39927.003
 20
44064.3338
 11
40098.753
 21
44236.0938
  0
LINE
  8
4-2
 62
     7
  6
CONTINUOUS
 10
39927.003
 20
44348.2559
 11
40098.753
 21
44520.0159
  0
LINE
  8
4-2
 62
     7
  6
CONTINUOUS
 10
39927.003
 20
44790.7805
 11
40098.753
 21
44962.5405
  0
LINE
  8
4-2
 62
     7
  6
CONTINUOUS
 10
37843.1737
 20
43935.0658
 11
37843.1737
 21
43198.105
  0
LINE
  8
4-2
 62
     7
  6
CONTINUOUS
 10
37843.1737
 20
44434.3138
 11
37843.1737
 21
44085.0658
  0
LINE
  8
4-2
 62
     7
  6
CONTINUOUS
 10
38359.13
 20
43937.3703
 11
38359.13
 21
43198.105
  0
LINE
  8
4-2
 62
     7
  6
CONTINUOUS
 10
38359.13
 20
44152.2256
 11
38359.13
 21
44087.3703
  0
LINE
  8
4-2
 62
     7
  6
CONTINUOUS
 10
38863.3601
 20
43198.105
 11
38863.3601
 21
43870.1374
  0
LINE
  8
4-2
 62
     7
  6
CONTINUOUS
 10
39275.8399
 20
43198.105
 11
39275.8399
 21
43588.0491
  0
LINE
  8
4-2
 62
     7
  6
CONTINUOUS
 10
39009.6365
 20
44790.4564
 11
39509.6365
 21
45290.4564
  0
LINE
  8
4-2
 62
     7
  6
CONTINUOUS
 10
39265.1872
 20
45782.3498
 11
39265.1872
 21
45290.4564
  0
LINE
  8
4-2
 62
     7
  6
CONTINUOUS
 10
35454.8105
 20
45787.3703
 11
40447.6624
 21
45787.3703
  0
LINE
  8
4-2
 62
     7
  6
CONTINUOUS
 10
40021.6624
 20
45680.8703
 11
40021.6624
 21
45893.8703
  0
LINE
  8
4-2
 62
     7
  6
CONTINUOUS
 10
38626.0303
 20
43198.105
 11
38626.0303
 21
44012.3703
  0
LINE
  8
4-2
 62
     7
  6
CONTINUOUS
 10
35320.6037
 20
44012.3703
 11
38626.0303
 21
44012.3703
  0
LINE
  8
4-2
 62
     7
  6
CONTINUOUS
 10
38111.6543
 20
43198.105
 11
38111.6543
 21
44012.3703
  0
LINE
  8
4-2
 62
     7
  6
CONTINUOUS
 10
37598.5637
 20
43198.105
 11
37598.5637
 21
44012.3703
  0
LINE
  8
4-2
 62
     7
  6
CONTINUOUS
 10
40435.1739
 20
42947.3703
 11
40115.6739
 21
42947.3703
  0
LINE
  8
4-2
 62
     7
  6
CONTINUOUS
 10
39523.2361
 20
42947.3703
 11
39902.6739
 21
42947.3703
  0
LINE
  8
4-2
 62
     7
  6
CONTINUOUS
 10
40009.1739
 20
42947.3703
 11
40009.1739
 21
43053.8703
  0
LINE
  8
4-2
 62
     7
  6
CONTINUOUS
 10
40009.1739
 20
42947.3703
 11
39916.9439
 21
42894.1203
  0
LINE
  8
4-2
 62
     7
  6
CONTINUOUS
 10
40009.1739
 20
42947.3703
 11
40101.3939
 21
42894.1203
  0
LINE
  8
4-2
 62
     7
  6
CONTINUOUS
 10
39023.2361
 20
42698.105
 11
39523.2361
 21
43198.105
  0
LINE
  8
4-2
 62
     7
  6
CONTINUOUS
 10
38503.8007
 20
42698.105
 11
39003.8007
 21
43198.105
  0
LINE
  8
4-2
 62
     7
  6
CONTINUOUS
 10
37984.3654
 20
42698.105
 11
38484.3654
 21
43198.105
  0
LINE
  8
4-2
 62
     7
  6
CONTINUOUS
 10
37458.1841
 20
42698.105
 11
37958.1841
 21
43198.105
  0
LINE
  8
4-2
 62
     7
  6
CONTINUOUS
 10
37153.9563
 20
42947.3703
 11
37458.1841
 21
42947.3703
  0
LINE
  8
4-2
 62
     7
  6
CONTINUOUS
 10
35969.5768
 20
47613.5777
 11
35969.5768
 21
45787.3703
  0
LINE
  8
4-2
 62
     7
  6
CONTINUOUS
 10
35320.6037
 20
43231.3703
 11
35320.6037
 21
44012.3703
  0
LINE
  8
4-2
 62
     7
  6
CONTINUOUS
 10
36397.1807
 20
42947.3703
 11
36585.9563
 21
42947.3703
  0
LINE
  8
4-2
 62
     7
  6
CONTINUOUS
 10
35829.1807
 20
42947.3703
 11
35604.6037
 21
42947.3703
  0
LINE
  8
4-2
 62
     7
  6
CONTINUOUS
 10
36113.1807
 20
43231.3703
 11
36113.1807
 21
44012.3703
  0
LINE
  8
4-2
 62
     7
  6
CONTINUOUS
 10
32921.798
 20
43147.3703
 11
32921.798
 21
43751.8693
  0
LINE
  8
4-2
 62
     7
  6
CONTINUOUS
 10
31034.9563
 20
43751.8693
 11
32921.798
 21
43751.8693
  0
LINE
  8
4-2
 62
     7
  6
CONTINUOUS
 10
30834.9563
 20
44101.8693
 11
30834.9563
 21
39695.29
  0
LINE
  8
4-2
 62
     7
  6
CONTINUOUS
 10
30834.9563
 20
44551.8693
 11
30834.9563
 21
47245.0928
  0
LINE
  8
4-2
 62
     7
  6
CONTINUOUS
 10
30834.9563
 20
45035.1603
 11
30834.9563
 21
44628.9711
  0
LINE
  8
4-2
 62
     7
  6
CONTINUOUS
 10
31034.9563
 20
44051.8693
 11
31034.9563
 21
43751.8693
  0
LINE
  8
4-2
 62
     7
  6
CONTINUOUS
 10
31034.9563
 20
44151.8693
 11
31034.9563
 21
44051.8693
  0
LINE
  8
4-2
 62
     7
  6
CONTINUOUS
 10
31034.9563
 20
44651.8693
 11
31034.9563
 21
44551.8693
  0
LINE
  8
4-2
 62
     7
  6
CONTINUOUS
 10
30834.9563
 20
44101.8693
 11
30534.9563
 21
44626.8693
  0
LINE
  8
4-2
 62
     7
  6
CONTINUOUS
 10
30734.9563
 20
44651.8693
 11
30934.9563
 21
44451.8693
  0
LINE
  8
4-2
 62
     7
  6
CONTINUOUS
 10
30934.9563
 20
44651.8693
 11
30734.9563
 21
44451.8693
  0
LINE
  8
4-2
 62
     7
  6
CONTINUOUS
 10
32561.798
 20
43147.3703
 11
33281.798
 21
43147.3703
  0
LINE
  8
4-2
 62
     7
  6
CONTINUOUS
 10
32561.798
 20
42747.3703
 11
33281.798
 21
42747.3703
  0
LINE
  8
4-2
 62
     7
  6
CONTINUOUS
 10
33281.798
 20
42747.3703
 11
33281.798
 21
43147.3703
  0
LINE
  8
4-2
 62
     7
  6
CONTINUOUS
 10
32561.798
 20
42747.3703
 11
32561.798
 21
43147.3703
  0
LINE
  8
4-2
 62
     7
  6
CONTINUOUS
 10
31852.4195
 20
42947.3703
 11
32561.798
 21
42947.3703
  0
LINE
  8
4-2
 62
     7
  6
CONTINUOUS
 10
31802.4195
 20
42998.715
 11
31502.4195
 21
42998.715
  0
LINE
  8
4-2
 62
     7
  6
CONTINUOUS
 10
31502.4195
 20
42898.715
 11
31802.4195
 21
42898.715
  0
LINE
  8
4-2
 62
     7
  6
CONTINUOUS
 10
30729.9563
 20
42948.715
 11
31452.4195
 21
42948.715
  0
LINE
  8
4-2
 62
     7
  6
CONTINUOUS
 10
30729.9563
 20
42598.715
 11
30939.9563
 21
42598.715
  0
LINE
  8
4-2
 62
     7
  6
CONTINUOUS
 10
30729.9563
 20
42773.715
 11
30834.9563
 21
42773.715
  0
LINE
  8
4-2
 62
     7
  6
CONTINUOUS
 10
30834.9563
 20
43517.6903
 11
30834.9563
 21
42983.715
  0
LINE
  8
4-2
 62
     7
  6
CONTINUOUS
 10
34564.1816
 20
47813.5777
 11
35619.5768
 21
47813.5777
  0
LINE
  8
4-2
 62
     7
  6
CONTINUOUS
 10
35619.5768
 20
47613.5777
 11
35619.5768
 21
48013.5777
  0
LINE
  8
4-2
 62
     7
  6
CONTINUOUS
 10
36319.5768
 20
47613.5777
 11
36319.5768
 21
48013.5777
  0
LINE
  8
4-2
 62
     7
  6
CONTINUOUS
 10
35619.5768
 20
47613.5777
 11
36319.5768
 21
47613.5777
  0
LINE
  8
4-2
 62
     7
  6
CONTINUOUS
 10
35619.5768
 20
48013.5777
 11
36319.5768
 21
48013.5777
  0
LINE
  8
4-2
 62
     7
  6
CONTINUOUS
 10
34063.1519
 20
45787.3703
 11
35454.8105
 21
45787.3703
  0
LINE
  8
4-2
 62
     7
  6
CONTINUOUS
 10
34757.9628
 20
45254.292
 11
34757.9628
 21
45787.3703
  0
LINE
  8
4-2
 62
     7
  6
CONTINUOUS
 10
34397.9628
 20
45254.292
 11
35117.9628
 21
45254.292
  0
LINE
  8
4-2
 62
     7
  6
CONTINUOUS
 10
34397.9628
 20
44854.292
 11
35117.9628
 21
44854.292
  0
LINE
  8
4-2
 62
     7
  6
CONTINUOUS
 10
35117.9628
 20
44854.292
 11
35117.9628
 21
45254.292
  0
LINE
  8
4-2
 62
     7
  6
CONTINUOUS
 10
34397.9628
 20
44854.292
 11
34397.9628
 21
45254.292
  0
LINE
  8
4-2
 62
     7
  6
CONTINUOUS
 10
31514.9797
 20
45857.3703
 11
31514.9797
 21
45717.3703
  0
LINE
  8
4-2
 62
     7
  6
CONTINUOUS
 10
31514.9797
 20
45717.3703
 11
31914.9797
 21
45717.3703
  0
LINE
  8
4-2
 62
     7
  6
CONTINUOUS
 10
31914.9797
 20
45717.3703
 11
31914.9797
 21
45857.3703
  0
LINE
  8
4-2
 62
     7
  6
CONTINUOUS
 10
31914.9797
 20
45857.3703
 11
31514.9797
 21
45857.3703
  0
LINE
  8
4-2
 62
     7
  6
CONTINUOUS
 10
34263.1519
 20
45857.3703
 11
33863.1519
 21
45857.3703
  0
LINE
  8
4-2
 62
     7
  6
CONTINUOUS
 10
34263.1519
 20
45717.3703
 11
34263.1519
 21
45857.3703
  0
LINE
  8
4-2
 62
     7
  6
CONTINUOUS
 10
33863.1519
 20
45717.3703
 11
34263.1519
 21
45717.3703
  0
LINE
  8
4-2
 62
     7
  6
CONTINUOUS
 10
33863.1519
 20
45857.3703
 11
33863.1519
 21
45717.3703
  0
LINE
  8
4-2
 62
     7
  6
CONTINUOUS
 10
33015.67
 20
45787.3703
 11
34063.1519
 21
45787.3703
  0
LINE
  8
4-2
 62
     7
  6
CONTINUOUS
 10
31831.7733
 20
45787.3703
 11
32465.67
 21
45787.3703
  0
LINE
  8
4-2
 62
     7
  6
CONTINUOUS
 10
30834.9563
 20
45787.3703
 11
31831.7733
 21
45787.3703
  0
LINE
  8
4-2
 62
     7
  6
CONTINUOUS
 10
30834.9563
 20
47245.0928
 11
30434.9563
 21
47895.0928
  0
LINE
  8
4-2
 62
     7
  6
CONTINUOUS
 10
30734.9563
 20
47945.0928
 11
30934.9563
 21
47945.0928
  0
LINE
  8
4-2
 62
     7
  6
CONTINUOUS
 10
35237.002
 20
51231.4963
 11
35477.002
 21
51231.4963
  0
LINE
  8
4-2
 62
     7
  6
CONTINUOUS
 10
35277.002
 20
51181.4963
 11
35437.002
 21
51181.4963
  0
LINE
  8
4-2
 62
     7
  6
CONTINUOUS
 10
35307.002
 20
51131.4963
 11
35407.002
 21
51131.4963
  0
LINE
  8
4-2
 62
     7
  6
CONTINUOUS
 10
35357.002
 20
51231.4963
 11
35357.002
 21
51301.4963
  0
LINE
  8
4-2
 62
     7
  6
CONTINUOUS
 10
35007.002
 20
50951.4963
 11
35007.002
 21
51401.4963
  0
LINE
  8
4-2
 62
     7
  6
CONTINUOUS
 10
35727.002
 20
50951.4963
 11
35727.002
 21
51401.4963
  0
LINE
  8
4-2
 62
     7
  6
CONTINUOUS
 10
35007.002
 20
50951.4963
 11
35727.002
 21
50951.4963
  0
LINE
  8
4-2
 62
     7
  6
CONTINUOUS
 10
35007.002
 20
51401.4963
 11
35727.002
 21
51401.4963
  0
LINE
  8
4-2
 62
     7
  6
CONTINUOUS
 10
35357.002
 20
50971.4963
 11
35357.002
 21
51051.4963
  0
LINE
  8
4-2
 62
     7
  6
CONTINUOUS
 10
35357.002
 20
50971.4963
 11
35426.002
 21
51011.4963
  0
LINE
  8
4-2
 62
     7
  6
CONTINUOUS
 10
35357.002
 20
51051.4963
 11
35426.002
 21
51011.4963
  0
LINE
  8
4-2
 62
     7
  6
CONTINUOUS
 10
35057.002
 20
51011.4963
 11
35657.002
 21
51011.4963
  0
LINE
  8
4-2
 62
     7
  6
CONTINUOUS
 10
35357.002
 20
51021.4963
 11
35409.002
 21
51021.4963
  0
LINE
  8
4-2
 62
     7
  6
CONTINUOUS
 10
35357.002
 20
51031.4963
 11
35392.002
 21
51031.4963
  0
LINE
  8
4-2
 62
     7
  6
CONTINUOUS
 10
35357.002
 20
51041.4963
 11
35374.002
 21
51041.4963
  0
LINE
  8
4-2
 62
     7
  6
CONTINUOUS
 10
35357.002
 20
51001.4963
 11
35409.002
 21
51001.4963
  0
LINE
  8
4-2
 62
     7
  6
CONTINUOUS
 10
35357.002
 20
50991.4963
 11
35392.002
 21
50991.4963
  0
LINE
  8
4-2
 62
     7
  6
CONTINUOUS
 10
35357.002
 20
50981.4963
 11
35374.002
 21
50981.4963
  0
LINE
  8
4-2
 62
     7
  6
CONTINUOUS
 10
35057.002
 20
50991.4963
 11
35057.002
 21
51031.4963
  0
LINE
  8
4-2
 62
     7
  6
CONTINUOUS
 10
35341.2043
 20
52024.606
 11
35512.9543
 21
52196.366
  0
LINE
  8
4-2
 62
     7
  6
CONTINUOUS
 10
30834.9562
 20
52143.9088
 11
30434.9562
 21
52143.9088
  0
LINE
  8
4-2
 62
     7
  6
CONTINUOUS
 10
30734.9562
 20
52268.9088
 11
30734.9562
 21
52018.9088
  0
LINE
  8
4-2
 62
     7
  6
CONTINUOUS
 10
30334.9562
 20
52268.9088
 11
30334.9562
 21
52018.9088
  0
LINE
  8
4-2
 62
     7
  6
CONTINUOUS
 10
30734.9562
 20
52268.9088
 11
30334.9562
 21
52268.9088
  0
LINE
  8
4-2
 62
     7
  6
CONTINUOUS
 10
30734.9562
 20
52018.9088
 11
30334.9562
 21
52018.9088
  0
LINE
  8
4-2
 62
     7
  6
CONTINUOUS
 10
30434.9562
 20
52143.9088
 11
30634.9562
 21
52218.9088
  0
LINE
  8
4-2
 62
     7
  6
CONTINUOUS
 10
30434.9562
 20
52143.9088
 11
30634.9562
 21
52068.9088
  0
LINE
  8
4-2
 62
     7
  6
CONTINUOUS
 10
30334.9562
 20
52143.9088
 11
30234.9562
 21
52143.9088
  0
LINE
  8
4-2
 62
     7
  6
CONTINUOUS
 10
29582.1069
 20
55940.3703
 11
32220.2781
 21
55940.3703
  0
LINE
  8
4-2
 62
     7
  6
CONTINUOUS
 10
30934.9563
 20
49530.5285
 11
30734.9563
 21
49530.5285
  0
LINE
  8
4-2
 62
     7
  6
CONTINUOUS
 10
30834.9563
 20
49730.5285
 11
30734.9563
 21
49530.5285
  0
LINE
  8
4-2
 62
     7
  6
CONTINUOUS
 10
30834.9563
 20
49730.5285
 11
30934.9563
 21
49530.5285
  0
LINE
  8
4-2
 62
     7
  6
CONTINUOUS
 10
30734.9562
 20
51652.6792
 11
30934.9562
 21
51652.6792
  0
LINE
  8
4-2
 62
     7
  6
CONTINUOUS
 10
30834.9562
 20
51452.6792
 11
30934.9562
 21
51652.6792
  0
LINE
  8
4-2
 62
     7
  6
CONTINUOUS
 10
30834.9562
 20
51452.6792
 11
30734.9562
 21
51652.6792
  0
LINE
  8
4-2
 62
     7
  6
CONTINUOUS
 10
30834.9562
 20
51652.6792
 11
30834.9562
 21
51943.9088
  0
LINE
  8
4-2
 62
     7
  6
CONTINUOUS
 10
37427.4408
 20
52822.5459
 11
37427.4408
 21
52751.5459
  0
LINE
  8
4-2
 62
     7
  6
CONTINUOUS
 10
37498.4408
 20
52822.5459
 11
37427.4408
 21
52822.5459
  0
LINE
  8
4-2
 62
     7
  6
CONTINUOUS
 10
37498.4408
 20
52751.5459
 11
37498.4408
 21
52822.5459
  0
LINE
  8
4-2
 62
     7
  6
CONTINUOUS
 10
37427.4408
 20
52751.5459
 11
37498.4408
 21
52751.5459
  0
LINE
  8
4-2
 62
     7
  6
CONTINUOUS
 10
31734.9563
 20
53343.9088
 11
32255.065
 21
53343.9088
  0
LINE
  8
4-2
 62
     7
  6
CONTINUOUS
 10
32225.975
 20
53256.6799
 11
32397.725
 21
53428.4399
  0
LINE
  8
4-2
 62
     7
  6
CONTINUOUS
 10
31334.9562
 20
52143.9088
 11
31734.9562
 21
52143.9088
  0
LINE
  8
4-2
 62
     7
  6
CONTINUOUS
 10
30834.9562
 20
52143.9088
 11
30984.9562
 21
52143.9088
  0
LINE
  8
4-2
 62
     7
  6
CONTINUOUS
 10
31394.9563
 20
53143.9088
 11
31734.9563
 21
53143.9088
  0
LINE
  8
4-2
 62
     7
  6
CONTINUOUS
 10
31394.9563
 20
53143.9088
 11
31394.9563
 21
53043.9088
  0
LINE
  8
4-2
 62
     7
  6
CONTINUOUS
 10
31394.9563
 20
52693.9088
 11
31394.9562
 21
52393.9088
  0
LINE
  8
4-2
 62
     7
  6
CONTINUOUS
 10
31454.9562
 20
52543.9088
 11
31734.9562
 21
52543.9088
  0
LINE
  8
4-2
 62
     7
  6
CONTINUOUS
 10
30834.9562
 20
52543.9088
 11
31334.9562
 21
52543.9088
  0
LINE
  8
4-2
 62
     7
  6
CONTINUOUS
 10
31454.9563
 20
52643.9088
 11
31454.9562
 21
52443.9088
  0
LINE
  8
4-2
 62
     7
  6
CONTINUOUS
 10
31334.9563
 20
52643.9088
 11
31334.9562
 21
52443.9088
  0
LINE
  8
4-2
 62
     7
  6
CONTINUOUS
 10
30764.9563
 20
53393.9088
 11
30764.9563
 21
52893.9088
  0
LINE
  8
4-2
 62
     7
  6
CONTINUOUS
 10
30904.9563
 20
53393.9088
 11
30904.9563
 21
52893.9088
  0
LINE
  8
4-2
 62
     7
  6
CONTINUOUS
 10
30734.9563
 20
52943.9088
 11
30984.9563
 21
52943.9088
  0
LINE
  8
4-2
 62
     7
  6
CONTINUOUS
 10
30734.9563
 20
53143.9088
 11
30834.9563
 21
53143.9088
  0
LINE
  8
4-2
 62
     7
  6
CONTINUOUS
 10
30734.9563
 20
53343.9088
 11
31734.9563
 21
53343.9088
  0
LINE
  8
4-2
 62
     7
  6
CONTINUOUS
 10
31034.9563
 20
53543.9088
 11
31734.9563
 21
53543.9088
  0
LINE
  8
4-2
 62
     7
  6
CONTINUOUS
 10
31034.9563
 20
53643.9088
 11
31034.9563
 21
53543.9088
  0
LINE
  8
4-2
 62
     7
  6
CONTINUOUS
 10
31034.9563
 20
54143.9088
 11
31034.9563
 21
54043.9088
  0
LINE
  8
4-2
 62
     7
  6
CONTINUOUS
 10
30834.9563
 20
53593.9088
 11
30534.9563
 21
54118.9088
  0
LINE
  8
4-2
 62
     7
  6
CONTINUOUS
 10
30734.9563
 20
54143.9088
 11
30934.9563
 21
54143.9088
  0
LINE
  8
4-2
 62
     7
  6
CONTINUOUS
 10
30234.9562
 20
51943.9088
 11
31734.9562
 21
51943.9088
  0
LINE
  8
4-2
 62
     7
  6
CONTINUOUS
 10
30234.9563
 20
54243.9088
 11
31734.9563
 21
54243.9088
  0
LINE
  8
4-2
 62
     7
  6
CONTINUOUS
 10
31734.9563
 20
54243.9088
 11
31734.9562
 21
51943.9088
  0
LINE
  8
4-2
 62
     7
  6
CONTINUOUS
 10
30234.9563
 20
54243.9088
 11
30234.9562
 21
51943.9088
  0
LINE
  8
4-2
 62
     7
  6
CONTINUOUS
 10
30834.9563
 20
53593.9088
 11
30834.9562
 21
51943.9088
  0
LINE
  8
4-2
 62
     7
  6
CONTINUOUS
 10
30834.9563
 20
54243.9088
 11
30834.9563
 21
54143.9088
  0
LINE
  8
4-2
 62
     7
  6
CONTINUOUS
 10
30834.9563
 20
52843.9088
 11
30834.9563
 21
53086.1703
  0
LINE
  8
4-2
 62
     7
  6
CONTINUOUS
 10
30834.9563
 20
54656.1103
 11
30834.9563
 21
54243.9088
  0
LINE
  8
4-2
 62
     7
  6
CONTINUOUS
 10
52134.9563
 20
37231.3143
 11
51884.9563
 21
37031.3143
  0
LINE
  8
4-2
 62
     7
  6
CONTINUOUS
 10
52134.9563
 20
37231.3143
 11
52384.9563
 21
37031.3143
  0
LINE
  8
4-2
 62
     7
  6
CONTINUOUS
 10
52134.9563
 20
37231.3143
 11
52134.9563
 21
37431.3143
  0
LINE
  8
4-2
 62
     7
  6
CONTINUOUS
 10
52134.9563
 20
36631.3143
 11
51934.9562
 21
36331.3143
  0
LINE
  8
4-2
 62
     7
  6
CONTINUOUS
 10
52134.9563
 20
36631.3143
 11
52334.9562
 21
36331.3143
  0
LINE
  8
4-2
 62
     7
  6
CONTINUOUS
 10
52334.9562
 20
36331.3143
 11
51934.9562
 21
36331.3143
  0
LINE
  8
4-2
 62
     7
  6
CONTINUOUS
 10
52134.9562
 20
36081.3143
 11
52134.9563
 21
29052.5897
  0
LINE
  8
4-2
 62
     7
  6
CONTINUOUS
 10
52134.9563
 20
38220.5539
 11
52134.9563
 21
37581.3143
  0
LINE
  8
4-2
 62
     7
  6
CONTINUOUS
 10
40774.9563
 20
38220.5539
 11
40774.9563
 21
37581.9034
  0
LINE
  8
4-2
 62
     7
  6
CONTINUOUS
 10
30834.9563
 20
38220.5539
 11
30834.9563
 21
37581.9034
  0
LINE
  8
4-2
 62
     7
  6
CONTINUOUS
 10
30834.9563
 20
55023.6303
 11
30834.9563
 21
55585.3703
  0
LINE
  8
4-2
 62
     7
  6
CONTINUOUS
 10
30834.9563
 20
55023.6303
 11
31177.8563
 21
54931.7603
  0
LINE
  8
4-2
 62
     7
  6
CONTINUOUS
 10
30834.9563
 20
54656.1103
 11
30492.0463
 21
54748.0003
  0
LINE
  8
4-2
 62
     7
  6
CONTINUOUS
 10
30492.0463
 20
54748.0003
 11
31177.8563
 21
54931.7603
  0
LINE
  8
4-2
 62
     7
  6
CONTINUOUS
 10
36869.9563
 20
43231.3703
 11
36869.9563
 21
45787.3703
  0
LINE
  8
4-2
 62
     7
  6
CONTINUOUS
 10
52312.4563
 20
31601.2903
 11
52046.2063
 21
31601.2903
  0
LINE
  8
4-2
 62
     7
  6
CONTINUOUS
 10
52312.4563
 20
31778.7903
 11
52046.2063
 21
31778.7903
  0
LINE
  8
4-2
 62
     7
  6
CONTINUOUS
 10
52046.2063
 20
31956.2903
 11
52312.4563
 21
31956.2903
  0
LINE
  8
4-2
 62
     7
  6
CONTINUOUS
 10
49492.8996
 20
35807.7645
 11
50227.8996
 21
35807.7645
  0
LINE
  8
4-2
 62
     7
  6
CONTINUOUS
 10
49492.8996
 20
35632.7645
 11
49597.8996
 21
35632.7645
  0
LINE
  8
4-2
 62
     7
  6
CONTINUOUS
 10
49492.8996
 20
35457.7645
 11
49702.8996
 21
35457.7645
  0
LINE
  8
4-2
 62
     7
  6
CONTINUOUS
 10
51834.9563
 20
38820.5539
 11
51734.9563
 21
38760.554
  0
LINE
  8
4-2
 62
     7
  6
CONTINUOUS
 10
52024.9563
 20
38290.5539
 11
52124.9563
 21
38350.5539
  0
LINE
  8
4-2
 62
     7
  6
CONTINUOUS
 10
52124.9563
 20
38350.5539
 11
51834.9563
 21
38820.5539
  0
LINE
  8
4-2
 62
     7
  6
CONTINUOUS
 10
52024.9563
 20
38290.5539
 11
51734.9563
 21
38760.554
  0
LINE
  8
4-2
 62
     7
  6
CONTINUOUS
 10
52134.9563
 20
38220.5539
 11
51734.9563
 21
38870.554
  0
LINE
  8
4-2
 62
     7
  6
CONTINUOUS
 10
52034.9563
 20
38920.5539
 11
52234.9563
 21
38920.5539
  0
LINE
  8
4-2
 62
     7
  6
CONTINUOUS
 10
53911.3128
 20
33163.2903
 11
54111.3128
 21
33163.2903
  0
LINE
  8
4-2
 62
     7
  6
CONTINUOUS
 10
54011.3128
 20
33263.2903
 11
54011.3128
 21
33063.2903
  0
LINE
  8
4-2
 62
     7
  6
CONTINUOUS
 10
52134.9363
 20
33163.2903
 11
53114.1837
 21
33163.2903
  0
LINE
  8
4-2
 62
     7
  6
CONTINUOUS
 10
53114.1837
 20
33163.2903
 11
53911.3128
 21
33163.2903
  0
LINE
  8
4-2
 62
     7
  6
CONTINUOUS
 10
52914.1837
 20
33233.2903
 11
52914.1837
 21
33093.2903
  0
LINE
  8
4-2
 62
     7
  6
CONTINUOUS
 10
52914.1837
 20
33093.2903
 11
53314.1837
 21
33093.2903
  0
LINE
  8
4-2
 62
     7
  6
CONTINUOUS
 10
53314.1837
 20
33093.2903
 11
53314.1837
 21
33233.2903
  0
LINE
  8
4-2
 62
     7
  6
CONTINUOUS
 10
53314.1837
 20
33233.2903
 11
52914.1837
 21
33233.2903
  0
LINE
  8
4-2
 62
     7
  6
CONTINUOUS
 10
54025.9795
 20
32056.2903
 11
54025.9795
 21
31956.2903
  0
LINE
  8
4-2
 62
     7
  6
CONTINUOUS
 10
54025.9795
 20
31956.2903
 11
54111.9795
 21
31906.2903
  0
LINE
  8
4-2
 62
     7
  6
CONTINUOUS
 10
54025.9795
 20
31956.2903
 11
53939.9795
 21
31906.2903
  0
LINE
  8
4-2
 62
     7
  6
CONTINUOUS
 10
54111.3128
 20
33163.2903
 11
54687.4351
 21
33163.2903
  0
LINE
  8
4-2
 62
     7
  6
CONTINUOUS
 10
54125.9795
 20
31956.2903
 11
54673.11
 21
31956.2903
  0
LINE
  8
4-2
 62
     7
  6
CONTINUOUS
 10
40952.4563
 20
31601.2903
 11
40686.2063
 21
31601.2903
  0
LINE
  8
4-2
 62
     7
  6
CONTINUOUS
 10
40952.4563
 20
31778.7903
 11
40686.2063
 21
31778.7903
  0
LINE
  8
4-2
 62
     7
  6
CONTINUOUS
 10
40686.2063
 20
31956.2903
 11
40952.4563
 21
31956.2903
  0
LINE
  8
4-2
 62
     7
  6
CONTINUOUS
 10
40774.9563
 20
39695.29
 11
40774.9563
 21
38920.5539
  0
LINE
  8
4-2
 62
     7
  6
CONTINUOUS
 10
38132.8996
 20
35807.7645
 11
38867.8996
 21
35807.7645
  0
LINE
  8
4-2
 62
     7
  6
CONTINUOUS
 10
38132.8996
 20
35632.7645
 11
38237.8996
 21
35632.7645
  0
LINE
  8
4-2
 62
     7
  6
CONTINUOUS
 10
38132.8996
 20
35457.7645
 11
38342.8996
 21
35457.7645
  0
LINE
  8
4-2
 62
     7
  6
CONTINUOUS
 10
40974.9563
 20
37231.9034
 11
40574.9563
 21
37231.9034
  0
LINE
  8
4-2
 62
     7
  6
CONTINUOUS
 10
40974.9562
 20
36331.9034
 11
40574.9562
 21
36331.9034
  0
LINE
  8
4-2
 62
     7
  6
CONTINUOUS
 10
40974.9562
 20
36531.9034
 11
40574.9562
 21
36531.9034
  0
LINE
  8
4-2
 62
     7
  6
CONTINUOUS
 10
40974.9562
 20
36431.9034
 11
40574.9562
 21
36431.9034
  0
LINE
  8
4-2
 62
     7
  6
CONTINUOUS
 10
40474.9563
 20
38820.5539
 11
40374.9563
 21
38760.554
  0
LINE
  8
4-2
 62
     7
  6
CONTINUOUS
 10
40664.9563
 20
38290.5539
 11
40764.9563
 21
38350.5539
  0
LINE
  8
4-2
 62
     7
  6
CONTINUOUS
 10
40764.9563
 20
38350.5539
 11
40474.9563
 21
38820.5539
  0
LINE
  8
4-2
 62
     7
  6
CONTINUOUS
 10
40664.9563
 20
38290.5539
 11
40374.9563
 21
38760.554
  0
LINE
  8
4-2
 62
     7
  6
CONTINUOUS
 10
40774.9563
 20
38220.5539
 11
40374.9563
 21
38870.554
  0
LINE
  8
4-2
 62
     7
  6
CONTINUOUS
 10
40674.9563
 20
38920.5539
 11
40874.9563
 21
38920.5539
  0
LINE
  8
4-2
 62
     7
  6
CONTINUOUS
 10
42551.3128
 20
33163.2903
 11
42751.3128
 21
33163.2903
  0
LINE
  8
4-2
 62
     7
  6
CONTINUOUS
 10
42651.3128
 20
33263.2903
 11
42651.3128
 21
33063.2903
  0
LINE
  8
4-2
 62
     7
  6
CONTINUOUS
 10
40774.9363
 20
33163.2903
 11
41754.1837
 21
33163.2903
  0
LINE
  8
4-2
 62
     7
  6
CONTINUOUS
 10
41754.1837
 20
33163.2903
 11
42551.3128
 21
33163.2903
  0
LINE
  8
4-2
 62
     7
  6
CONTINUOUS
 10
41554.1837
 20
33233.2903
 11
41554.1837
 21
33093.2903
  0
LINE
  8
4-2
 62
     7
  6
CONTINUOUS
 10
41554.1837
 20
33093.2903
 11
41954.1837
 21
33093.2903
  0
LINE
  8
4-2
 62
     7
  6
CONTINUOUS
 10
41954.1837
 20
33093.2903
 11
41954.1837
 21
33233.2903
  0
LINE
  8
4-2
 62
     7
  6
CONTINUOUS
 10
41954.1837
 20
33233.2903
 11
41554.1837
 21
33233.2903
  0
LINE
  8
4-2
 62
     7
  6
CONTINUOUS
 10
40774.9363
 20
31956.2903
 11
42565.9795
 21
31956.2903
  0
LINE
  8
4-2
 62
     7
  6
CONTINUOUS
 10
42665.9795
 20
32056.2903
 11
42665.9795
 21
31956.2903
  0
LINE
  8
4-2
 62
     7
  6
CONTINUOUS
 10
42665.9795
 20
31956.2903
 11
42751.9795
 21
31906.2903
  0
LINE
  8
4-2
 62
     7
  6
CONTINUOUS
 10
42665.9795
 20
31956.2903
 11
42579.9795
 21
31906.2903
  0
LINE
  8
4-2
 62
     7
  6
CONTINUOUS
 10
42751.3128
 20
33163.2903
 11
43327.4351
 21
33163.2903
  0
LINE
  8
4-2
 62
     7
  6
CONTINUOUS
 10
42765.9795
 20
31956.2903
 11
43313.11
 21
31956.2903
  0
LINE
  8
4-2
 62
     7
  6
CONTINUOUS
 10
31012.4563
 20
31601.2903
 11
30746.2063
 21
31601.2903
  0
LINE
  8
4-2
 62
     7
  6
CONTINUOUS
 10
31012.4563
 20
31778.7903
 11
30746.2063
 21
31778.7903
  0
LINE
  8
4-2
 62
     7
  6
CONTINUOUS
 10
30746.2063
 20
31956.2903
 11
31012.4563
 21
31956.2903
  0
LINE
  8
4-2
 62
     7
  6
CONTINUOUS
 10
30834.9563
 20
39695.29
 11
30834.9563
 21
38920.5539
  0
LINE
  8
4-2
 62
     7
  6
CONTINUOUS
 10
28192.8996
 20
35807.7645
 11
28927.8996
 21
35807.7645
  0
LINE
  8
4-2
 62
     7
  6
CONTINUOUS
 10
28192.8996
 20
35632.7645
 11
28297.8996
 21
35632.7645
  0
LINE
  8
4-2
 62
     7
  6
CONTINUOUS
 10
28192.8996
 20
35457.7645
 11
28402.8996
 21
35457.7645
  0
LINE
  8
4-2
 62
     7
  6
CONTINUOUS
 10
31034.9563
 20
37231.9034
 11
30634.9563
 21
37231.9034
  0
LINE
  8
4-2
 62
     7
  6
CONTINUOUS
 10
31034.9562
 20
36331.9034
 11
30634.9562
 21
36331.9034
  0
LINE
  8
4-2
 62
     7
  6
CONTINUOUS
 10
31034.9562
 20
36531.9034
 11
30634.9562
 21
36531.9034
  0
LINE
  8
4-2
 62
     7
  6
CONTINUOUS
 10
31034.9562
 20
36431.9034
 11
30634.9562
 21
36431.9034
  0
LINE
  8
4-2
 62
     7
  6
CONTINUOUS
 10
30534.9563
 20
38820.5539
 11
30434.9563
 21
38760.554
  0
LINE
  8
4-2
 62
     7
  6
CONTINUOUS
 10
30724.9563
 20
38290.5539
 11
30824.9563
 21
38350.5539
  0
LINE
  8
4-2
 62
     7
  6
CONTINUOUS
 10
30824.9563
 20
38350.5539
 11
30534.9563
 21
38820.5539
  0
LINE
  8
4-2
 62
     7
  6
CONTINUOUS
 10
30724.9563
 20
38290.5539
 11
30434.9563
 21
38760.554
  0
LINE
  8
4-2
 62
     7
  6
CONTINUOUS
 10
30834.9563
 20
38220.5539
 11
30434.9563
 21
38870.554
  0
LINE
  8
4-2
 62
     7
  6
CONTINUOUS
 10
30734.9563
 20
38920.5539
 11
30934.9563
 21
38920.5539
  0
LINE
  8
4-2
 62
     7
  6
CONTINUOUS
 10
32611.3128
 20
33163.2903
 11
32811.3128
 21
33163.2903
  0
LINE
  8
4-2
 62
     7
  6
CONTINUOUS
 10
32711.3128
 20
33263.2903
 11
32711.3128
 21
33063.2903
  0
LINE
  8
4-2
 62
     7
  6
CONTINUOUS
 10
30834.9363
 20
33163.2903
 11
31814.1837
 21
33163.2903
  0
LINE
  8
4-2
 62
     7
  6
CONTINUOUS
 10
31814.1837
 20
33163.2903
 11
32611.3128
 21
33163.2903
  0
LINE
  8
4-2
 62
     7
  6
CONTINUOUS
 10
31614.1837
 20
33233.2903
 11
31614.1837
 21
33093.2903
  0
LINE
  8
4-2
 62
     7
  6
CONTINUOUS
 10
31614.1837
 20
33093.2903
 11
32014.1837
 21
33093.2903
  0
LINE
  8
4-2
 62
     7
  6
CONTINUOUS
 10
32014.1837
 20
33093.2903
 11
32014.1837
 21
33233.2903
  0
LINE
  8
4-2
 62
     7
  6
CONTINUOUS
 10
32014.1837
 20
33233.2903
 11
31614.1837
 21
33233.2903
  0
LINE
  8
4-2
 62
     7
  6
CONTINUOUS
 10
30834.9363
 20
31956.2903
 11
32625.9795
 21
31956.2903
  0
LINE
  8
4-2
 62
     7
  6
CONTINUOUS
 10
32725.9795
 20
32056.2903
 11
32725.9795
 21
31956.2903
  0
LINE
  8
4-2
 62
     7
  6
CONTINUOUS
 10
32725.9795
 20
31956.2903
 11
32811.9795
 21
31906.2903
  0
LINE
  8
4-2
 62
     7
  6
CONTINUOUS
 10
32725.9795
 20
31956.2903
 11
32639.9795
 21
31906.2903
  0
LINE
  8
4-2
 62
     7
  6
CONTINUOUS
 10
32811.3128
 20
33163.2903
 11
33387.4351
 21
33163.2903
  0
LINE
  8
4-2
 62
     7
  6
CONTINUOUS
 10
32825.9795
 20
31956.2903
 11
33373.11
 21
31956.2903
  0
LINE
  8
4-2
 62
     7
  6
CONTINUOUS
 10
20045.9795
 20
31956.2903
 11
20593.11
 21
31956.2903
  0
LINE
  8
4-2
 62
     7
  6
CONTINUOUS
 10
20031.3128
 20
33163.2903
 11
20607.4351
 21
33163.2903
  0
LINE
  8
4-2
 62
     7
  6
CONTINUOUS
 10
19945.9795
 20
31956.2903
 11
19859.9795
 21
31906.2903
  0
LINE
  8
4-2
 62
     7
  6
CONTINUOUS
 10
19945.9795
 20
31956.2903
 11
20031.9795
 21
31906.2903
  0
LINE
  8
4-2
 62
     7
  6
CONTINUOUS
 10
19945.9795
 20
32056.2903
 11
19945.9795
 21
31956.2903
  0
LINE
  8
4-2
 62
     7
  6
CONTINUOUS
 10
18054.9363
 20
31956.2903
 11
19845.9795
 21
31956.2903
  0
LINE
  8
4-2
 62
     7
  6
CONTINUOUS
 10
19234.1837
 20
33233.2903
 11
18834.1837
 21
33233.2903
  0
LINE
  8
4-2
 62
     7
  6
CONTINUOUS
 10
19234.1837
 20
33093.2903
 11
19234.1837
 21
33233.2903
  0
LINE
  8
4-2
 62
     7
  6
CONTINUOUS
 10
18834.1837
 20
33093.2903
 11
19234.1837
 21
33093.2903
  0
LINE
  8
4-2
 62
     7
  6
CONTINUOUS
 10
18834.1837
 20
33233.2903
 11
18834.1837
 21
33093.2903
  0
LINE
  8
4-2
 62
     7
  6
CONTINUOUS
 10
19034.1837
 20
33163.2903
 11
19831.3128
 21
33163.2903
  0
LINE
  8
4-2
 62
     7
  6
CONTINUOUS
 10
18054.9363
 20
33163.2903
 11
19034.1837
 21
33163.2903
  0
LINE
  8
4-2
 62
     7
  6
CONTINUOUS
 10
19931.3128
 20
33263.2903
 11
19931.3128
 21
33063.2903
  0
LINE
  8
4-2
 62
     7
  6
CONTINUOUS
 10
19831.3128
 20
33163.2903
 11
20031.3128
 21
33163.2903
  0
LINE
  8
4-2
 62
     7
  6
CONTINUOUS
 10
18054.9563
 20
38220.5539
 11
18054.9563
 21
37581.9034
  0
LINE
  8
4-2
 62
     7
  6
CONTINUOUS
 10
17954.9563
 20
38920.5539
 11
18154.9563
 21
38920.5539
  0
LINE
  8
4-2
 62
     7
  6
CONTINUOUS
 10
18054.9563
 20
38220.5539
 11
17654.9563
 21
38870.554
  0
LINE
  8
4-2
 62
     7
  6
CONTINUOUS
 10
17944.9563
 20
38290.5539
 11
17654.9563
 21
38760.554
  0
LINE
  8
4-2
 62
     7
  6
CONTINUOUS
 10
18044.9563
 20
38350.5539
 11
17754.9563
 21
38820.5539
  0
LINE
  8
4-2
 62
     7
  6
CONTINUOUS
 10
17944.9563
 20
38290.5539
 11
18044.9563
 21
38350.5539
  0
LINE
  8
4-2
 62
     7
  6
CONTINUOUS
 10
17754.9563
 20
38820.5539
 11
17654.9563
 21
38760.554
  0
LINE
  8
4-2
 62
     7
  6
CONTINUOUS
 10
18254.9562
 20
36431.9034
 11
17854.9562
 21
36431.9034
  0
LINE
  8
4-2
 62
     7
  6
CONTINUOUS
 10
18254.9562
 20
36531.9034
 11
17854.9562
 21
36531.9034
  0
LINE
  8
4-2
 62
     7
  6
CONTINUOUS
 10
18254.9562
 20
36331.9034
 11
17854.9562
 21
36331.9034
  0
LINE
  8
4-2
 62
     7
  6
CONTINUOUS
 10
18254.9563
 20
37231.9034
 11
17854.9563
 21
37231.9034
  0
LINE
  8
4-2
 62
     7
  6
CONTINUOUS
 10
18054.9562
 20
36081.9034
 11
18054.9562
 21
29052.5897
  0
LINE
  8
4-2
 62
     7
  6
CONTINUOUS
 10
62684.9563
 20
28479.5918
 11
62884.9563
 21
28279.5918
  0
LINE
  8
4-2
 62
     7
  6
CONTINUOUS
 10
62884.9563
 20
28479.5918
 11
62684.9563
 21
28279.5918
  0
LINE
  8
4-2
 62
     7
  6
CONTINUOUS
 10
62784.9563
 20
27679.5918
 11
62384.9563
 21
28329.5919
  0
LINE
  8
4-2
 62
     7
  6
CONTINUOUS
 10
64104.9563
 20
28479.5918
 11
64304.9563
 21
28279.5918
  0
LINE
  8
4-2
 62
     7
  6
CONTINUOUS
 10
64304.9563
 20
28479.5918
 11
64104.9563
 21
28279.5918
  0
LINE
  8
4-2
 62
     7
  6
CONTINUOUS
 10
64204.9563
 20
27679.5918
 11
63804.9563
 21
28329.5919
  0
LINE
  8
4-2
 62
     7
  6
CONTINUOUS
 10
64204.9563
 20
29052.5897
 11
64204.9563
 21
28360.157
  0
LINE
  8
4-2
 62
     7
  6
CONTINUOUS
 10
38644.9563
 20
29052.5897
 11
38644.9563
 21
28360.157
  0
LINE
  8
4-2
 62
     7
  6
CONTINUOUS
 10
38644.9563
 20
27679.5918
 11
38244.9563
 21
28329.5919
  0
LINE
  8
4-2
 62
     7
  6
CONTINUOUS
 10
38744.9563
 20
28479.5918
 11
38544.9563
 21
28279.5918
  0
LINE
  8
4-2
 62
     7
  6
CONTINUOUS
 10
38544.9563
 20
28479.5918
 11
38744.9563
 21
28279.5918
  0
LINE
  8
4-2
 62
     7
  6
CONTINUOUS
 10
40064.9563
 20
27679.5918
 11
39664.9563
 21
28329.5919
  0
LINE
  8
4-2
 62
     7
  6
CONTINUOUS
 10
40164.9563
 20
28479.5918
 11
39964.9563
 21
28279.5918
  0
LINE
  8
4-2
 62
     7
  6
CONTINUOUS
 10
39964.9563
 20
28479.5918
 11
40164.9563
 21
28279.5918
  0
LINE
  8
4-2
 62
     7
  6
CONTINUOUS
 10
40064.9563
 20
28379.5918
 11
40064.9563
 21
29052.5897
  0
LINE
  8
4-2
 62
     7
  6
CONTINUOUS
 10
42904.9563
 20
28379.5918
 11
42904.9563
 21
29052.5897
  0
LINE
  8
4-2
 62
     7
  6
CONTINUOUS
 10
42804.9563
 20
28479.5918
 11
43004.9563
 21
28279.5918
  0
LINE
  8
4-2
 62
     7
  6
CONTINUOUS
 10
43004.9563
 20
28479.5918
 11
42804.9563
 21
28279.5918
  0
LINE
  8
4-2
 62
     7
  6
CONTINUOUS
 10
42904.9563
 20
27679.5918
 11
42504.9563
 21
28329.5919
  0
LINE
  8
4-2
 62
     7
  6
CONTINUOUS
 10
41384.9563
 20
28479.5918
 11
41584.9563
 21
28279.5918
  0
LINE
  8
4-2
 62
     7
  6
CONTINUOUS
 10
41584.9563
 20
28479.5918
 11
41384.9563
 21
28279.5918
  0
LINE
  8
4-2
 62
     7
  6
CONTINUOUS
 10
41484.9563
 20
27679.5918
 11
41084.9563
 21
28329.5919
  0
LINE
  8
4-2
 62
     7
  6
CONTINUOUS
 10
41484.9563
 20
29052.5897
 11
41484.9563
 21
28360.157
  0
LINE
  8
4-2
 62
     7
  6
CONTINUOUS
 10
45744.9563
 20
28379.5918
 11
45744.9563
 21
29052.5897
  0
LINE
  8
4-2
 62
     7
  6
CONTINUOUS
 10
45644.9563
 20
28479.5918
 11
45844.9563
 21
28279.5918
  0
LINE
  8
4-2
 62
     7
  6
CONTINUOUS
 10
45844.9563
 20
28479.5918
 11
45644.9563
 21
28279.5918
  0
LINE
  8
4-2
 62
     7
  6
CONTINUOUS
 10
45744.9563
 20
27679.5918
 11
45344.9563
 21
28329.5919
  0
LINE
  8
4-2
 62
     7
  6
CONTINUOUS
 10
44224.9563
 20
28479.5918
 11
44424.9563
 21
28279.5918
  0
LINE
  8
4-2
 62
     7
  6
CONTINUOUS
 10
44424.9563
 20
28479.5918
 11
44224.9563
 21
28279.5918
  0
LINE
  8
4-2
 62
     7
  6
CONTINUOUS
 10
44324.9563
 20
27679.5918
 11
43924.9563
 21
28329.5919
  0
LINE
  8
4-2
 62
     7
  6
CONTINUOUS
 10
44324.9563
 20
29052.5897
 11
44324.9563
 21
28360.157
  0
LINE
  8
4-2
 62
     7
  6
CONTINUOUS
 10
47064.9563
 20
28479.5918
 11
47264.9563
 21
28279.5918
  0
LINE
  8
4-2
 62
     7
  6
CONTINUOUS
 10
47264.9563
 20
28479.5918
 11
47064.9563
 21
28279.5918
  0
LINE
  8
4-2
 62
     7
  6
CONTINUOUS
 10
47164.9563
 20
27679.5918
 11
46764.9563
 21
28329.5919
  0
LINE
  8
4-2
 62
     7
  6
CONTINUOUS
 10
52844.9563
 20
29052.5897
 11
52844.9563
 21
28360.157
  0
LINE
  8
4-2
 62
     7
  6
CONTINUOUS
 10
52844.9563
 20
27679.5918
 11
52444.9563
 21
28329.5919
  0
LINE
  8
4-2
 62
     7
  6
CONTINUOUS
 10
52944.9563
 20
28479.5918
 11
52744.9563
 21
28279.5918
  0
LINE
  8
4-2
 62
     7
  6
CONTINUOUS
 10
52744.9563
 20
28479.5918
 11
52944.9563
 21
28279.5918
  0
LINE
  8
4-2
 62
     7
  6
CONTINUOUS
 10
54364.9563
 20
28479.5918
 11
54164.9563
 21
28279.5918
  0
LINE
  8
4-2
 62
     7
  6
CONTINUOUS
 10
54164.9563
 20
28479.5918
 11
54364.9563
 21
28279.5918
  0
LINE
  8
4-2
 62
     7
  6
CONTINUOUS
 10
54264.9563
 20
28379.5918
 11
54264.9563
 21
29052.5897
  0
LINE
  8
4-2
 62
     7
  6
CONTINUOUS
 10
51424.9563
 20
28379.5918
 11
51424.9563
 21
29052.5897
  0
LINE
  8
4-2
 62
     7
  6
CONTINUOUS
 10
51324.9563
 20
28479.5918
 11
51524.9563
 21
28279.5918
  0
LINE
  8
4-2
 62
     7
  6
CONTINUOUS
 10
51524.9563
 20
28479.5918
 11
51324.9563
 21
28279.5918
  0
LINE
  8
4-2
 62
     7
  6
CONTINUOUS
 10
51424.9563
 20
27679.5918
 11
51024.9563
 21
28329.5919
  0
LINE
  8
4-2
 62
     7
  6
CONTINUOUS
 10
49904.9563
 20
28479.5918
 11
50104.9563
 21
28279.5918
  0
LINE
  8
4-2
 62
     7
  6
CONTINUOUS
 10
50104.9563
 20
28479.5918
 11
49904.9563
 21
28279.5918
  0
LINE
  8
4-2
 62
     7
  6
CONTINUOUS
 10
50004.9563
 20
27679.5918
 11
49604.9563
 21
28329.5919
  0
LINE
  8
4-2
 62
     7
  6
CONTINUOUS
 10
50004.9563
 20
29052.5897
 11
50004.9563
 21
28360.157
  0
LINE
  8
4-2
 62
     7
  6
CONTINUOUS
 10
27284.9563
 20
29052.5897
 11
27284.9563
 21
28360.157
  0
LINE
  8
4-2
 62
     7
  6
CONTINUOUS
 10
27284.9563
 20
27679.5918
 11
26884.9563
 21
28329.5919
  0
LINE
  8
4-2
 62
     7
  6
CONTINUOUS
 10
27384.9563
 20
28479.5918
 11
27184.9563
 21
28279.5918
  0
LINE
  8
4-2
 62
     7
  6
CONTINUOUS
 10
27184.9563
 20
28479.5918
 11
27384.9563
 21
28279.5918
  0
LINE
  8
4-2
 62
     7
  6
CONTINUOUS
 10
28704.9563
 20
27679.5918
 11
28304.9563
 21
28329.5919
  0
LINE
  8
4-2
 62
     7
  6
CONTINUOUS
 10
28804.9563
 20
28479.5918
 11
28604.9563
 21
28279.5918
  0
LINE
  8
4-2
 62
     7
  6
CONTINUOUS
 10
28604.9563
 20
28479.5918
 11
28804.9563
 21
28279.5918
  0
LINE
  8
4-2
 62
     7
  6
CONTINUOUS
 10
28704.9563
 20
28379.5918
 11
28704.9563
 21
29052.5897
  0
LINE
  8
4-2
 62
     7
  6
CONTINUOUS
 10
31544.9563
 20
28379.5918
 11
31544.9563
 21
29052.5897
  0
LINE
  8
4-2
 62
     7
  6
CONTINUOUS
 10
31444.9563
 20
28479.5918
 11
31644.9563
 21
28279.5918
  0
LINE
  8
4-2
 62
     7
  6
CONTINUOUS
 10
31644.9563
 20
28479.5918
 11
31444.9563
 21
28279.5918
  0
LINE
  8
4-2
 62
     7
  6
CONTINUOUS
 10
31544.9563
 20
27679.5918
 11
31144.9563
 21
28329.5919
  0
LINE
  8
4-2
 62
     7
  6
CONTINUOUS
 10
30024.9563
 20
28479.5918
 11
30224.9563
 21
28279.5918
  0
LINE
  8
4-2
 62
     7
  6
CONTINUOUS
 10
30224.9563
 20
28479.5918
 11
30024.9563
 21
28279.5918
  0
LINE
  8
4-2
 62
     7
  6
CONTINUOUS
 10
30124.9563
 20
27679.5918
 11
29724.9563
 21
28329.5919
  0
LINE
  8
4-2
 62
     7
  6
CONTINUOUS
 10
30124.9563
 20
29052.5897
 11
30124.9563
 21
28360.157
  0
LINE
  8
4-2
 62
     7
  6
CONTINUOUS
 10
34384.9563
 20
28379.5918
 11
34384.9563
 21
29052.5897
  0
LINE
  8
4-2
 62
     7
  6
CONTINUOUS
 10
34284.9563
 20
28479.5918
 11
34484.9563
 21
28279.5918
  0
LINE
  8
4-2
 62
     7
  6
CONTINUOUS
 10
34484.9563
 20
28479.5918
 11
34284.9563
 21
28279.5918
  0
LINE
  8
4-2
 62
     7
  6
CONTINUOUS
 10
34384.9563
 20
27679.5918
 11
33984.9563
 21
28329.5919
  0
LINE
  8
4-2
 62
     7
  6
CONTINUOUS
 10
32864.9563
 20
28479.5918
 11
33064.9563
 21
28279.5918
  0
LINE
  8
4-2
 62
     7
  6
CONTINUOUS
 10
33064.9563
 20
28479.5918
 11
32864.9563
 21
28279.5918
  0
LINE
  8
4-2
 62
     7
  6
CONTINUOUS
 10
32964.9563
 20
27679.5918
 11
32564.9563
 21
28329.5919
  0
LINE
  8
4-2
 62
     7
  6
CONTINUOUS
 10
32964.9563
 20
29052.5897
 11
32964.9563
 21
28360.157
  0
LINE
  8
4-2
 62
     7
  6
CONTINUOUS
 10
35704.9563
 20
28479.5918
 11
35904.9563
 21
28279.5918
  0
LINE
  8
4-2
 62
     7
  6
CONTINUOUS
 10
35904.9563
 20
28479.5918
 11
35704.9563
 21
28279.5918
  0
LINE
  8
4-2
 62
     7
  6
CONTINUOUS
 10
35804.9563
 20
27679.5918
 11
35404.9563
 21
28329.5919
  0
LINE
  8
4-2
 62
     7
  6
CONTINUOUS
 10
25864.9563
 20
27679.5918
 11
25464.9563
 21
28329.5919
  0
LINE
  8
4-2
 62
     7
  6
CONTINUOUS
 10
25964.9563
 20
28479.5918
 11
25764.9563
 21
28279.5918
  0
LINE
  8
4-2
 62
     7
  6
CONTINUOUS
 10
25764.9563
 20
28479.5918
 11
25964.9563
 21
28279.5918
  0
LINE
  8
4-2
 62
     7
  6
CONTINUOUS
 10
21604.9563
 20
29052.5897
 11
21604.9563
 21
28360.157
  0
LINE
  8
4-2
 62
     7
  6
CONTINUOUS
 10
21604.9563
 20
27679.5918
 11
21204.9563
 21
28329.5919
  0
LINE
  8
4-2
 62
     7
  6
CONTINUOUS
 10
21704.9563
 20
28479.5918
 11
21504.9563
 21
28279.5918
  0
LINE
  8
4-2
 62
     7
  6
CONTINUOUS
 10
21504.9563
 20
28479.5918
 11
21704.9563
 21
28279.5918
  0
LINE
  8
4-2
 62
     7
  6
CONTINUOUS
 10
23024.9563
 20
27679.5918
 11
22624.9563
 21
28329.5919
  0
LINE
  8
4-2
 62
     7
  6
CONTINUOUS
 10
23124.9563
 20
28479.5918
 11
22924.9563
 21
28279.5918
  0
LINE
  8
4-2
 62
     7
  6
CONTINUOUS
 10
22924.9563
 20
28479.5918
 11
23124.9563
 21
28279.5918
  0
LINE
  8
4-2
 62
     7
  6
CONTINUOUS
 10
23024.9563
 20
28379.5918
 11
23024.9563
 21
29052.5897
  0
LINE
  8
4-2
 62
     7
  6
CONTINUOUS
 10
18764.9563
 20
29052.5897
 11
18764.9563
 21
28360.157
  0
LINE
  8
4-2
 62
     7
  6
CONTINUOUS
 10
18764.9563
 20
27679.5918
 11
18364.9563
 21
28329.5919
  0
LINE
  8
4-2
 62
     7
  6
CONTINUOUS
 10
18864.9563
 20
28479.5918
 11
18664.9563
 21
28279.5918
  0
LINE
  8
4-2
 62
     7
  6
CONTINUOUS
 10
18664.9563
 20
28479.5918
 11
18864.9563
 21
28279.5918
  0
LINE
  8
4-2
 62
     7
  6
CONTINUOUS
 10
20184.9563
 20
27679.5918
 11
19784.9563
 21
28329.5919
  0
LINE
  8
4-2
 62
     7
  6
CONTINUOUS
 10
20284.9563
 20
28479.5918
 11
20084.9563
 21
28279.5918
  0
LINE
  8
4-2
 62
     7
  6
CONTINUOUS
 10
20084.9563
 20
28479.5918
 11
20284.9563
 21
28279.5918
  0
LINE
  8
4-2
 62
     7
  6
CONTINUOUS
 10
20184.9563
 20
28379.5918
 11
20184.9563
 21
29052.5897
  0
LINE
  8
4-2
 62
     7
  6
CONTINUOUS
 10
17344.9563
 20
28379.5918
 11
17344.9563
 21
29052.5897
  0
LINE
  8
4-2
 62
     7
  6
CONTINUOUS
 10
17244.9563
 20
28479.5918
 11
17444.9563
 21
28279.5918
  0
LINE
  8
4-2
 62
     7
  6
CONTINUOUS
 10
17444.9563
 20
28479.5918
 11
17244.9563
 21
28279.5918
  0
LINE
  8
4-2
 62
     7
  6
CONTINUOUS
 10
17344.9563
 20
27679.5918
 11
16944.9563
 21
28329.5919
  0
LINE
  8
4-2
 62
     7
  6
CONTINUOUS
 10
15824.9563
 20
28479.5918
 11
16024.9563
 21
28279.5918
  0
LINE
  8
4-2
 62
     7
  6
CONTINUOUS
 10
16024.9563
 20
28479.5918
 11
15824.9563
 21
28279.5918
  0
LINE
  8
4-2
 62
     7
  6
CONTINUOUS
 10
15924.9563
 20
27679.5918
 11
15524.9563
 21
28329.5919
  0
LINE
  8
4-2
 62
     7
  6
CONTINUOUS
 10
15924.9563
 20
29052.5897
 11
15924.9563
 21
28360.157
  0
LINE
  8
4-2
 62
     7
  6
CONTINUOUS
 10
14504.9563
 20
27679.5918
 11
14104.9563
 21
28329.5919
  0
LINE
  8
4-2
 62
     7
  6
CONTINUOUS
 10
14604.9563
 20
28479.5918
 11
14404.9563
 21
28279.5918
  0
LINE
  8
4-2
 62
     7
  6
CONTINUOUS
 10
14404.9563
 20
28479.5918
 11
14604.9563
 21
28279.5918
  0
LINE
  8
4-2
 62
     7
  6
CONTINUOUS
 10
14504.9563
 20
29052.5897
 11
14504.9563
 21
28379.5918
  0
LINE
  8
4-2
 62
     7
  6
CONTINUOUS
 10
62784.9563
 20
25069.2903
 11
62784.9563
 21
27679.5918
  0
LINE
  8
4-2
 62
     7
  6
CONTINUOUS
 10
64204.9563
 20
27679.5918
 11
64204.9563
 21
25069.2903
  0
LINE
  8
4-2
 62
     7
  6
CONTINUOUS
 10
38644.9563
 20
27679.5918
 11
38644.9563
 21
25069.2903
  0
LINE
  8
4-2
 62
     7
  6
CONTINUOUS
 10
40064.9563
 20
25069.2903
 11
40064.9563
 21
27679.5918
  0
LINE
  8
4-2
 62
     7
  6
CONTINUOUS
 10
42904.9563
 20
25069.2903
 11
42904.9563
 21
27679.5918
  0
LINE
  8
4-2
 62
     7
  6
CONTINUOUS
 10
45744.9563
 20
25069.2903
 11
45744.9563
 21
27679.5918
  0
LINE
  8
4-2
 62
     7
  6
CONTINUOUS
 10
44324.9563
 20
27679.5918
 11
44324.9563
 21
25069.2903
  0
LINE
  8
4-2
 62
     7
  6
CONTINUOUS
 10
52844.9563
 20
27679.5918
 11
52844.9563
 21
25069.2903
  0
LINE
  8
4-2
 62
     7
  6
CONTINUOUS
 10
51424.9563
 20
25069.2903
 11
51424.9563
 21
27679.5918
  0
LINE
  8
4-2
 62
     7
  6
CONTINUOUS
 10
50004.9563
 20
27679.5918
 11
50004.9563
 21
25069.2903
  0
LINE
  8
4-2
 62
     7
  6
CONTINUOUS
 10
27284.9563
 20
27679.5918
 11
27284.9563
 21
25069.2903
  0
LINE
  8
4-2
 62
     7
  6
CONTINUOUS
 10
28704.9563
 20
25069.2903
 11
28704.9563
 21
27679.5918
  0
LINE
  8
4-2
 62
     7
  6
CONTINUOUS
 10
31544.9563
 20
25069.2903
 11
31544.9563
 21
27679.5918
  0
LINE
  8
4-2
 62
     7
  6
CONTINUOUS
 10
30124.9563
 20
27679.5918
 11
30124.9563
 21
25069.2903
  0
LINE
  8
4-2
 62
     7
  6
CONTINUOUS
 10
34384.9563
 20
25069.2903
 11
34384.9563
 21
27679.5918
  0
LINE
  8
4-2
 62
     7
  6
CONTINUOUS
 10
32964.9563
 20
27679.5918
 11
32964.9563
 21
25069.2903
  0
LINE
  8
4-2
 62
     7
  6
CONTINUOUS
 10
25864.9563
 20
25069.2903
 11
25864.9563
 21
27679.5918
  0
LINE
  8
4-2
 62
     7
  6
CONTINUOUS
 10
21604.9563
 20
27679.5918
 11
21604.9563
 21
25069.2903
  0
LINE
  8
4-2
 62
     7
  6
CONTINUOUS
 10
18764.9563
 20
27679.5918
 11
18764.9563
 21
25069.2903
  0
LINE
  8
4-2
 62
     7
  6
CONTINUOUS
 10
20184.9563
 20
25069.2903
 11
20184.9563
 21
27679.5918
  0
LINE
  8
4-2
 62
     7
  6
CONTINUOUS
 10
17344.9563
 20
25069.2903
 11
17344.9563
 21
27679.5918
  0
LINE
  8
4-2
 62
     7
  6
CONTINUOUS
 10
15924.9563
 20
27679.5918
 11
15924.9563
 21
25069.2903
  0
LINE
  8
4-2
 62
     7
  6
CONTINUOUS
 10
14504.9563
 20
27679.5918
 11
14504.9563
 21
25069.2903
  0
LINE
  8
4-2
 62
     7
  6
CONTINUOUS
 10
15412.8996
 20
35457.7645
 11
15622.8996
 21
35457.7645
  0
LINE
  8
4-2
 62
     7
  6
CONTINUOUS
 10
15412.8996
 20
35632.7645
 11
15517.8996
 21
35632.7645
  0
LINE
  8
4-2
 62
     7
  6
CONTINUOUS
 10
15412.8996
 20
35807.7645
 11
16147.8996
 21
35807.7645
  0
LINE
  8
4-2
 62
     7
  6
CONTINUOUS
 10
18054.9563
 20
39695.29
 11
18054.9563
 21
38920.5539
  0
LINE
  8
4-2
 62
     7
  6
CONTINUOUS
 10
18054.9563
 20
39695.29
 11
27517.24
 21
39695.29
  0
LINE
  8
4-2
 62
     7
  6
CONTINUOUS
 10
69174.9563
 20
8236.256
 11
69174.9563
 21
24345.9186
  0
LINE
  8
4-2
 62
     7
  6
CONTINUOUS
 10
17259.0663
 20
24912.4203
 11
17430.8163
 21
25084.1703
  0
LINE
  8
4-2
 62
     7
  6
CONTINUOUS
 10
15839.0663
 20
24912.4203
 11
16010.8163
 21
25084.1703
  0
LINE
  8
4-2
 62
     7
  6
CONTINUOUS
 10
14419.0663
 20
24912.4203
 11
14590.8363
 21
25084.1703
  0
LINE
  8
4-2
 62
     7
  6
CONTINUOUS
 10
17966.2063
 20
31956.2903
 11
18232.4563
 21
31956.2903
  0
LINE
  8
4-2
 62
     7
  6
CONTINUOUS
 10
18232.4563
 20
31778.7903
 11
17966.2063
 21
31778.7903
  0
LINE
  8
4-2
 62
     7
  6
CONTINUOUS
 10
18232.4563
 20
31601.2903
 11
17966.2063
 21
31601.2903
  0
LINE
  8
4-2
 62
     7
  6
CONTINUOUS
 10
67754.9563
 20
8236.256
 11
67754.9563
 21
24345.9186
  0
LINE
  8
4-2
 62
     7
  6
CONTINUOUS
 10
66334.9563
 20
8236.256
 11
66334.9563
 21
24345.9186
  0
LINE
  8
4-2
 62
     7
  6
CONTINUOUS
 10
64914.9563
 20
8236.256
 11
64914.9563
 21
24345.9186
  0
LINE
  8
4-2
 62
     7
  6
CONTINUOUS
 10
63494.9563
 20
8236.256
 11
63494.9563
 21
24345.9186
  0
LINE
  8
4-2
 62
     7
  6
CONTINUOUS
 10
62074.9563
 20
8236.256
 11
62074.9563
 21
24345.9186
  0
LINE
  8
4-2
 62
     7
  6
CONTINUOUS
 10
60654.9563
 20
8236.256
 11
60654.9563
 21
24345.9186
  0
LINE
  8
4-2
 62
     7
  6
CONTINUOUS
 10
59234.9563
 20
8236.256
 11
59234.9563
 21
24345.9186
  0
LINE
  8
4-2
 62
     7
  6
CONTINUOUS
 10
57814.9563
 20
8236.256
 11
57814.9563
 21
24345.9186
  0
LINE
  8
4-2
 62
     7
  6
CONTINUOUS
 10
56394.9563
 20
8236.256
 11
56394.9563
 21
24345.9186
  0
LINE
  8
4-2
 62
     7
  6
CONTINUOUS
 10
50714.9563
 20
8236.256
 11
50714.9563
 21
24345.9186
  0
LINE
  8
4-2
 62
     7
  6
CONTINUOUS
 10
52134.9563
 20
8236.256
 11
52134.9563
 21
24345.9186
  0
LINE
  8
4-2
 62
     7
  6
CONTINUOUS
 10
53554.9563
 20
8236.256
 11
53554.9563
 21
24345.9186
  0
LINE
  8
4-2
 62
     7
  6
CONTINUOUS
 10
54974.9563
 20
8236.256
 11
54974.9563
 21
24345.9186
  0
LINE
  8
4-2
 62
     7
  6
CONTINUOUS
 10
49294.9563
 20
8236.256
 11
49294.9563
 21
24345.9186
  0
LINE
  8
4-2
 62
     7
  6
CONTINUOUS
 10
47874.9563
 20
8236.256
 11
47874.9563
 21
24345.9186
  0
LINE
  8
4-2
 62
     7
  6
CONTINUOUS
 10
46454.9563
 20
8236.256
 11
46454.9563
 21
24345.9186
  0
LINE
  8
4-2
 62
     7
  6
CONTINUOUS
 10
45034.9563
 20
8236.256
 11
45034.9563
 21
24345.9186
  0
LINE
  8
4-2
 62
     7
  6
CONTINUOUS
 10
43614.9563
 20
8236.256
 11
43614.9563
 21
24345.9186
  0
LINE
  8
4-2
 62
     7
  6
CONTINUOUS
 10
42194.9563
 20
8236.256
 11
42194.9563
 21
24345.9186
  0
LINE
  8
4-2
 62
     7
  6
CONTINUOUS
 10
40774.9563
 20
8236.256
 11
40774.9563
 21
24345.9186
  0
LINE
  8
4-2
 62
     7
  6
CONTINUOUS
 10
39354.9563
 20
8236.256
 11
39354.9563
 21
24345.9186
  0
LINE
  8
4-2
 62
     7
  6
CONTINUOUS
 10
33674.9563
 20
8236.256
 11
33674.9563
 21
24345.9186
  0
LINE
  8
4-2
 62
     7
  6
CONTINUOUS
 10
35094.9563
 20
8236.256
 11
35094.9563
 21
24345.9186
  0
LINE
  8
4-2
 62
     7
  6
CONTINUOUS
 10
36514.9563
 20
8236.256
 11
36514.9563
 21
24345.9186
  0
LINE
  8
4-2
 62
     7
  6
CONTINUOUS
 10
37934.9563
 20
8236.256
 11
37934.9563
 21
24345.9186
  0
LINE
  8
4-2
 62
     7
  6
CONTINUOUS
 10
32254.9563
 20
8236.256
 11
32254.9563
 21
24345.9186
  0
LINE
  8
4-2
 62
     7
  6
CONTINUOUS
 10
30834.9563
 20
8236.256
 11
30834.9563
 21
24345.9186
  0
LINE
  8
4-2
 62
     7
  6
CONTINUOUS
 10
29414.9563
 20
8236.256
 11
29414.9563
 21
24345.9186
  0
LINE
  8
4-2
 62
     7
  6
CONTINUOUS
 10
27994.9563
 20
8236.256
 11
27994.9563
 21
24345.9186
  0
LINE
  8
4-2
 62
     7
  6
CONTINUOUS
 10
26574.9563
 20
8236.256
 11
26574.9563
 21
24345.9186
  0
LINE
  8
4-2
 62
     7
  6
CONTINUOUS
 10
25154.9563
 20
8236.256
 11
25154.9563
 21
24345.9186
  0
LINE
  8
4-2
 62
     7
  6
CONTINUOUS
 10
23734.9563
 20
8236.256
 11
23734.9563
 21
24345.9186
  0
LINE
  8
4-2
 62
     7
  6
CONTINUOUS
 10
22314.9563
 20
8236.256
 11
22314.9563
 21
24345.9186
  0
LINE
  8
4-2
 62
     7
  6
CONTINUOUS
 10
15214.9563
 20
8236.256
 11
15214.9563
 21
24345.9186
  0
LINE
  8
4-2
 62
     7
  6
CONTINUOUS
 10
20894.9563
 20
8236.256
 11
20894.9563
 21
24345.9186
  0
LINE
  8
4-2
 62
     7
  6
CONTINUOUS
 10
19474.9563
 20
8236.256
 11
19474.9563
 21
24345.9186
  0
LINE
  8
4-2
 62
     7
  6
CONTINUOUS
 10
18054.9563
 20
8236.256
 11
18054.9563
 21
24345.9186
  0
LINE
  8
4-2
 62
     7
  6
CONTINUOUS
 10
16634.9563
 20
8236.256
 11
16634.9563
 21
24345.9186
  0
LINE
  8
4-2
 62
     7
  6
CONTINUOUS
 10
10954.9563
 20
9596.939
 11
10954.9563
 21
15052.0411
  0
LINE
  8
4-2
 62
     7
  6
CONTINUOUS
 10
12374.9563
 20
9596.939
 11
12374.9563
 21
15052.0411
  0
LINE
  8
4-2
 62
     7
  6
CONTINUOUS
 10
10954.9563
 20
7576.5309
 11
10954.9563
 21
24345.9186
  0
LINE
  8
4-2
 62
     7
  6
CONTINUOUS
 10
12848.2896
 20
18688.7758
 11
12848.2896
 21
22679.0819
  0
LINE
  8
4-2
 62
     7
  6
CONTINUOUS
 10
11901.6229
 20
16870.4084
 11
11901.6229
 21
22679.0819
  0
LINE
  8
4-2
 62
     7
  6
CONTINUOUS
 10
13794.9563
 20
7576.5309
 11
13794.9563
 21
24345.9186
  0
LINE
  8
4-2
 62
     7
  6
CONTINUOUS
 10
18679.0663
 20
24912.4203
 11
18850.8163
 21
25084.1703
  0
LINE
  8
4-2
 62
     7
  6
CONTINUOUS
 10
20099.0663
 20
24912.4203
 11
20270.8163
 21
25084.1703
  0
LINE
  8
4-2
 62
     7
  6
CONTINUOUS
 10
21519.0663
 20
24912.4203
 11
21690.8163
 21
25084.1703
  0
LINE
  8
4-2
 62
     7
  6
CONTINUOUS
 10
25779.0663
 20
24912.4203
 11
25950.8163
 21
25084.1703
  0
LINE
  8
4-2
 62
     7
  6
CONTINUOUS
 10
34299.0663
 20
24912.4203
 11
34470.8163
 21
25084.1703
  0
LINE
  8
4-2
 62
     7
  6
CONTINUOUS
 10
32879.0663
 20
24912.4203
 11
33050.8163
 21
25084.1703
  0
LINE
  8
4-2
 62
     7
  6
CONTINUOUS
 10
31459.0663
 20
24912.4203
 11
31630.8163
 21
25084.1703
  0
LINE
  8
4-2
 62
     7
  6
CONTINUOUS
 10
30039.0663
 20
24912.4203
 11
30210.8163
 21
25084.1703
  0
LINE
  8
4-2
 62
     7
  6
CONTINUOUS
 10
27199.0663
 20
24912.4203
 11
27370.8163
 21
25084.1703
  0
LINE
  8
4-2
 62
     7
  6
CONTINUOUS
 10
28619.0663
 20
24912.4203
 11
28790.8163
 21
25084.1703
  0
LINE
  8
4-2
 62
     7
  6
CONTINUOUS
 10
51339.0663
 20
24912.4203
 11
51510.8163
 21
25084.1703
  0
LINE
  8
4-2
 62
     7
  6
CONTINUOUS
 10
49919.0663
 20
24912.4203
 11
50090.8163
 21
25084.1703
  0
LINE
  8
4-2
 62
     7
  6
CONTINUOUS
 10
52759.0663
 20
24912.4203
 11
52930.8163
 21
25084.1703
  0
LINE
  8
4-2
 62
     7
  6
CONTINUOUS
 10
45659.0663
 20
24912.4203
 11
45830.8163
 21
25084.1703
  0
LINE
  8
4-2
 62
     7
  6
CONTINUOUS
 10
44239.0663
 20
24912.4203
 11
44410.8163
 21
25084.1703
  0
LINE
  8
4-2
 62
     7
  6
CONTINUOUS
 10
42819.0663
 20
24912.4203
 11
42990.8163
 21
25084.1703
  0
LINE
  8
4-2
 62
     7
  6
CONTINUOUS
 10
38559.0663
 20
24912.4203
 11
38730.8163
 21
25084.1703
  0
LINE
  8
4-2
 62
     7
  6
CONTINUOUS
 10
39979.0663
 20
24912.4203
 11
40150.8163
 21
25084.1703
  0
LINE
  8
4-2
 62
     7
  6
CONTINUOUS
 10
64119.0663
 20
24912.4203
 11
64290.8163
 21
25084.1703
  0
LINE
  8
4-2
 62
     7
  6
CONTINUOUS
 10
62699.0663
 20
24912.4203
 11
62870.8163
 21
25084.1703
  0
ARC
  8
4-2
 62
     7
  6
CONTINUOUS
 10
35425.0414
 20
52476.5447
 40
71
 50
0
 51
180
  0
CIRCLE
  8
4-2
 62
     7
  6
CONTINUOUS
 10
5272.749
 20
27820.5641
 40
71
  0
CIRCLE
  8
4-2
 62
     7
  6
CONTINUOUS
 10
5272.749
 20
28175.5641
 40
71
  0
CIRCLE
  8
4-2
 62
     7
  6
CONTINUOUS
 10
4704.749
 20
27820.5641
 40
71
  0
CIRCLE
  8
4-2
 62
     7
  6
CONTINUOUS
 10
4704.749
 20
28175.5641
 40
71
  0
CIRCLE
  8
4-2
 62
     7
  6
CONTINUOUS
 10
6976.749
 20
27820.5641
 40
71
  0
CIRCLE
  8
4-2
 62
     7
  6
CONTINUOUS
 10
6976.749
 20
28175.5641
 40
71
  0
CIRCLE
  8
4-2
 62
     7
  6
CONTINUOUS
 10
7544.749
 20
27820.5641
 40
71
  0
CIRCLE
  8
4-2
 62
     7
  6
CONTINUOUS
 10
7544.749
 20
28175.5641
 40
71
  0
CIRCLE
  8
4-2
 62
     7
  6
CONTINUOUS
 10
8112.749
 20
27820.5641
 40
71
  0
CIRCLE
  8
4-2
 62
     7
  6
CONTINUOUS
 10
8112.749
 20
28175.5641
 40
71
  0
CIRCLE
  8
4-2
 62
     7
  6
CONTINUOUS
 10
8680.749
 20
27820.5641
 40
71
  0
CIRCLE
  8
4-2
 62
     7
  6
CONTINUOUS
 10
8680.749
 20
28175.5641
 40
71
  0
CIRCLE
  8
4-2
 62
     7
  6
CONTINUOUS
 10
9248.749
 20
27820.5641
 40
71
  0
CIRCLE
  8
4-2
 62
     7
  6
CONTINUOUS
 10
9248.749
 20
28175.5641
 40
71
  0
CIRCLE
  8
4-2
 62
     7
  6
CONTINUOUS
 10
9816.749
 20
27820.5641
 40
71
  0
CIRCLE
  8
4-2
 62
     7
  6
CONTINUOUS
 10
9816.749
 20
28175.5641
 40
71
  0
CIRCLE
  8
4-2
 62
     7
  6
CONTINUOUS
 10
10384.749
 20
27820.5641
 40
71
  0
CIRCLE
  8
4-2
 62
     7
  6
CONTINUOUS
 10
10384.749
 20
28175.5641
 40
71
  0
CIRCLE
  8
4-2
 62
     7
  6
CONTINUOUS
 10
31923.3312
 20
52747.6335
 40
150
  0
CIRCLE
  8
4-2
 62
     7
  6
CONTINUOUS
 10
75602.8003
 20
40649.6913
 40
108
  0
CIRCLE
  8
4-2
 62
     7
  6
CONTINUOUS
 10
75602.8003
 20
40649.6913
 40
86.4
  0
CIRCLE
  8
4-2
 62
     7
  6
CONTINUOUS
 10
75602.8003
 20
40649.6913
 40
64.8
  0
CIRCLE
  8
4-2
 62
     7
  6
CONTINUOUS
 10
75602.8003
 20
40649.6913
 40
43.2
  0
CIRCLE
  8
4-2
 62
     7
  6
CONTINUOUS
 10
75602.8003
 20
40649.6913
 40
21.6
  0
CIRCLE
  8
4-2
 62
     7
  6
CONTINUOUS
 10
31254.2001
 20
44995.1945
 40
86.4
  0
CIRCLE
  8
4-2
 62
     7
  6
CONTINUOUS
 10
31254.2001
 20
44995.1945
 40
69.12
  0
CIRCLE
  8
4-2
 62
     7
  6
CONTINUOUS
 10
31254.2001
 20
44995.1945
 40
51.84
  0
CIRCLE
  8
4-2
 62
     7
  6
CONTINUOUS
 10
31254.2001
 20
44995.1945
 40
34.56
  0
CIRCLE
  8
4-2
 62
     7
  6
CONTINUOUS
 10
31254.2001
 20
44995.1945
 40
17.28
  0
CIRCLE
  8
4-2
 62
     7
  6
CONTINUOUS
 10
53912.6822
 20
26546.7201
 40
86.4
  0
CIRCLE
  8
4-2
 62
     7
  6
CONTINUOUS
 10
53912.6822
 20
26546.7201
 40
69.12
  0
CIRCLE
  8
4-2
 62
     7
  6
CONTINUOUS
 10
53912.6822
 20
26546.7201
 40
51.84
  0
CIRCLE
  8
4-2
 62
     7
  6
CONTINUOUS
 10
53912.6822
 20
26546.7201
 40
34.56
  0
CIRCLE
  8
4-2
 62
     7
  6
CONTINUOUS
 10
53912.6822
 20
26546.7201
 40
17.28
  0
CIRCLE
  8
4-2
 62
     7
  6
CONTINUOUS
 10
55377.1345
 20
26546.7201
 40
17.28
  0
CIRCLE
  8
4-2
 62
     7
  6
CONTINUOUS
 10
55377.1345
 20
26546.7201
 40
34.56
  0
CIRCLE
  8
4-2
 62
     7
  6
CONTINUOUS
 10
55377.1345
 20
26546.7201
 40
51.84
  0
CIRCLE
  8
4-2
 62
     7
  6
CONTINUOUS
 10
55377.1345
 20
26546.7201
 40
69.12
  0
CIRCLE
  8
4-2
 62
     7
  6
CONTINUOUS
 10
55377.1345
 20
26546.7201
 40
86.4
  0
CIRCLE
  8
4-2
 62
     7
  6
CONTINUOUS
 10
56775.6143
 20
26546.7201
 40
17.28
  0
CIRCLE
  8
4-2
 62
     7
  6
CONTINUOUS
 10
56775.6143
 20
26546.7201
 40
34.56
  0
CIRCLE
  8
4-2
 62
     7
  6
CONTINUOUS
 10
56775.6143
 20
26546.7201
 40
51.84
  0
CIRCLE
  8
4-2
 62
     7
  6
CONTINUOUS
 10
56775.6143
 20
26546.7201
 40
69.12
  0
CIRCLE
  8
4-2
 62
     7
  6
CONTINUOUS
 10
56775.6143
 20
26546.7201
 40
86.4
  0
CIRCLE
  8
4-2
 62
     7
  6
CONTINUOUS
 10
58174.0941
 20
26546.7201
 40
17.28
  0
CIRCLE
  8
4-2
 62
     7
  6
CONTINUOUS
 10
58174.0941
 20
26546.7201
 40
34.56
  0
CIRCLE
  8
4-2
 62
     7
  6
CONTINUOUS
 10
58174.0941
 20
26546.7201
 40
51.84
  0
CIRCLE
  8
4-2
 62
     7
  6
CONTINUOUS
 10
58174.0941
 20
26546.7201
 40
69.12
  0
CIRCLE
  8
4-2
 62
     7
  6
CONTINUOUS
 10
58174.0941
 20
26546.7201
 40
86.4
  0
CIRCLE
  8
4-2
 62
     7
  6
CONTINUOUS
 10
30834.9562
 20
48756.4946
 40
100
  0
CIRCLE
  8
4-2
 62
     7
  6
CONTINUOUS
 10
31234.9563
 20
49056.4945
 40
100
  0
CIRCLE
  8
4-2
 62
     7
  6
CONTINUOUS
 10
31084.9563
 20
49056.4946
 40
100
  0
CIRCLE
  8
4-2
 62
     7
  6
CONTINUOUS
 10
30834.9563
 20
49056.4946
 40
10
  0
CIRCLE
  8
4-2
 62
     7
  6
CONTINUOUS
 10
58174.0941
 20
26546.7201
 40
77.8268
  0
CIRCLE
  8
4-2
 62
     7
  6
CONTINUOUS
 10
58174.0941
 20
26546.7201
 40
60.5944
  0
CIRCLE
  8
4-2
 62
     7
  6
CONTINUOUS
 10
58174.0941
 20
26546.7201
 40
43.7626
  0
CIRCLE
  8
4-2
 62
     7
  6
CONTINUOUS
 10
58174.0941
 20
26546.7201
 40
9.3682
  0
CIRCLE
  8
4-2
 62
     7
  6
CONTINUOUS
 10
58174.0941
 20
26546.7201
 40
26.1965
  0
CIRCLE
  8
4-2
 62
     7
  6
CONTINUOUS
 10
56775.6143
 20
26546.7201
 40
77.8268
  0
CIRCLE
  8
4-2
 62
     7
  6
CONTINUOUS
 10
56775.6143
 20
26546.7201
 40
60.5944
  0
CIRCLE
  8
4-2
 62
     7
  6
CONTINUOUS
 10
56775.6143
 20
26546.7201
 40
43.7626
  0
CIRCLE
  8
4-2
 62
     7
  6
CONTINUOUS
 10
56775.6143
 20
26546.7201
 40
9.3682
  0
CIRCLE
  8
4-2
 62
     7
  6
CONTINUOUS
 10
56775.6143
 20
26546.7201
 40
26.1965
  0
CIRCLE
  8
4-2
 62
     7
  6
CONTINUOUS
 10
55377.1345
 20
26546.7201
 40
77.8268
  0
CIRCLE
  8
4-2
 62
     7
  6
CONTINUOUS
 10
55377.1345
 20
26546.7201
 40
60.5944
  0
CIRCLE
  8
4-2
 62
     7
  6
CONTINUOUS
 10
55377.1345
 20
26546.7201
 40
9.3682
  0
CIRCLE
  8
4-2
 62
     7
  6
CONTINUOUS
 10
55377.1345
 20
26546.7201
 40
26.1965
  0
CIRCLE
  8
4-2
 62
     7
  6
CONTINUOUS
 10
55377.1345
 20
26546.7201
 40
35.0101
  0
CIRCLE
  8
4-2
 62
     7
  6
CONTINUOUS
 10
53912.6822
 20
26546.7201
 40
26.1965
  0
CIRCLE
  8
4-2
 62
     7
  6
CONTINUOUS
 10
53912.6822
 20
26546.7201
 40
9.3682
  0
CIRCLE
  8
4-2
 62
     7
  6
CONTINUOUS
 10
53912.6822
 20
26546.7201
 40
43.7626
  0
CIRCLE
  8
4-2
 62
     7
  6
CONTINUOUS
 10
53912.6822
 20
26546.7201
 40
60.5944
  0
CIRCLE
  8
4-2
 62
     7
  6
CONTINUOUS
 10
53912.6822
 20
26546.7201
 40
77.8268
  0
CIRCLE
  8
4-2
 62
     7
  6
CONTINUOUS
 10
31254.2001
 20
44995.1945
 40
26.1965
  0
CIRCLE
  8
4-2
 62
     7
  6
CONTINUOUS
 10
31254.2001
 20
44995.1945
 40
9.3682
  0
CIRCLE
  8
4-2
 62
     7
  6
CONTINUOUS
 10
31254.2001
 20
44995.1945
 40
43.7626
  0
CIRCLE
  8
4-2
 62
     7
  6
CONTINUOUS
 10
31254.2001
 20
44995.1945
 40
60.5944
  0
CIRCLE
  8
4-2
 62
     7
  6
CONTINUOUS
 10
31254.2001
 20
44995.1945
 40
77.8268
  0
CIRCLE
  8
4-2
 62
     7
  6
CONTINUOUS
 10
75602.8003
 20
40649.6913
 40
32.7456
  0
CIRCLE
  8
4-2
 62
     7
  6
CONTINUOUS
 10
75602.8003
 20
40649.6913
 40
11.7102
  0
CIRCLE
  8
4-2
 62
     7
  6
CONTINUOUS
 10
75602.8003
 20
40649.6913
 40
54.7032
  0
CIRCLE
  8
4-2
 62
     7
  6
CONTINUOUS
 10
75602.8003
 20
40649.6913
 40
75.743
  0
CIRCLE
  8
4-2
 62
     7
  6
CONTINUOUS
 10
75602.8003
 20
40649.6913
 40
97.2835
  0
CIRCLE
  8
4-2
 62
     7
  6
CONTINUOUS
 10
32841.1211
 20
48446.2342
 40
35.5
  0
CIRCLE
  8
4-2
 62
     7
  6
CONTINUOUS
 10
32841.1211
 20
48446.2342
 40
21.3
  0
CIRCLE
  8
4-2
 62
     7
  6
CONTINUOUS
 10
32841.1211
 20
48446.2342
 40
7.1
  0
ARC
  8
4-2
 62
     7
  6
CONTINUOUS
 10
34566.2388
 20
48125.2101
 40
71
 50
0
 51
180
  0
CIRCLE
  8
4-2
 62
     7
  6
CONTINUOUS
 10
68719.3878
 20
33637.1199
 40
56.8
  0
CIRCLE
  8
4-2
 62
     7
  6
CONTINUOUS
 10
69660.1272
 20
33637.1199
 40
56.8
  0
CIRCLE
  8
4-2
 62
     7
  6
CONTINUOUS
 10
69660.1272
 20
37122.4973
 40
80
  0
CIRCLE
  8
4-2
 62
     7
  6
CONTINUOUS
 10
68719.3878
 20
38284.0758
 40
400
  0
CIRCLE
  8
4-2
 62
     7
  6
CONTINUOUS
 10
7552.0796
 20
37909.0276
 40
35.5
  0
CIRCLE
  8
4-2
 62
     7
  6
CONTINUOUS
 10
7552.0796
 20
37909.0276
 40
21.3
  0
CIRCLE
  8
4-2
 62
     7
  6
CONTINUOUS
 10
7552.0796
 20
37909.0276
 40
7.1
  0
CIRCLE
  8
4-2
 62
     7
  6
CONTINUOUS
 10
27703.0404
 20
41196.8862
 40
35.5
  0
CIRCLE
  8
4-2
 62
     7
  6
CONTINUOUS
 10
27703.0404
 20
41196.8862
 40
21.3
  0
CIRCLE
  8
4-2
 62
     7
  6
CONTINUOUS
 10
27703.0404
 20
41196.8862
 40
7.1
  0
CIRCLE
  8
4-2
 62
     7
  6
CONTINUOUS
 10
27703.0405
 20
45219.3703
 40
35.5
  0
CIRCLE
  8
4-2
 62
     7
  6
CONTINUOUS
 10
27703.0405
 20
45219.3703
 40
21.3
  0
CIRCLE
  8
4-2
 62
     7
  6
CONTINUOUS
 10
27703.0405
 20
45219.3703
 40
7.1
  0
CIRCLE
  8
4-2
 62
     7
  6
CONTINUOUS
 10
47164.9563
 20
24998.2903
 40
71
  0
CIRCLE
  8
4-2
 62
     7
  6
CONTINUOUS
 10
40774.9563
 20
30419.4811
 40
7.1
  0
CIRCLE
  8
4-2
 62
     7
  6
CONTINUOUS
 10
40774.9563
 20
30419.4811
 40
21.3
  0
CIRCLE
  8
4-2
 62
     7
  6
CONTINUOUS
 10
40774.9563
 20
30419.4811
 40
35.5
  0
ARC
  8
4-2
 62
     7
  6
CONTINUOUS
 10
43187.8358
 20
30152.5298
 40
60
 50
270
 51
450
  0
ARC
  8
4-2
 62
     7
  6
CONTINUOUS
 10
43848.0966
 20
30150.1918
 40
60
 50
90
 51
270
  0
CIRCLE
  8
4-2
 62
     7
  6
CONTINUOUS
 10
43514.9563
 20
29711.67
 40
60
  0
ARC
  8
4-2
 62
     7
  6
CONTINUOUS
 10
65907.8358
 20
30152.5289
 40
60
 50
270
 51
450
  0
CIRCLE
  8
4-2
 62
     7
  6
CONTINUOUS
 10
52134.9563
 20
30417.7132
 40
7.1
  0
CIRCLE
  8
4-2
 62
     7
  6
CONTINUOUS
 10
52134.9563
 20
30417.7132
 40
21.3
  0
CIRCLE
  8
4-2
 62
     7
  6
CONTINUOUS
 10
52134.9563
 20
30417.7132
 40
35.5
  0
ARC
  8
4-2
 62
     7
  6
CONTINUOUS
 10
66568.0966
 20
30150.1909
 40
60
 50
90
 51
270
  0
CIRCLE
  8
4-2
 62
     7
  6
CONTINUOUS
 10
66234.9563
 20
29711.6691
 40
60
  0
CIRCLE
  8
4-2
 62
     7
  6
CONTINUOUS
 10
69884.9563
 20
24998.2903
 40
71
  0
CIRCLE
  8
4-2
 62
     7
  6
CONTINUOUS
 10
67044.9563
 20
24998.2903
 40
71
  0
CIRCLE
  8
4-2
 62
     7
  6
CONTINUOUS
 10
67044.9563
 20
29052.5897
 40
7.1
  0
CIRCLE
  8
4-2
 62
     7
  6
CONTINUOUS
 10
67044.9563
 20
29052.5897
 40
21.3
  0
CIRCLE
  8
4-2
 62
     7
  6
CONTINUOUS
 10
67044.9563
 20
29052.5897
 40
35.5
  0
CIRCLE
  8
4-2
 62
     7
  6
CONTINUOUS
 10
68464.9563
 20
29052.5897
 40
35.5
  0
CIRCLE
  8
4-2
 62
     7
  6
CONTINUOUS
 10
68464.9563
 20
29052.5897
 40
21.3
  0
CIRCLE
  8
4-2
 62
     7
  6
CONTINUOUS
 10
68464.9563
 20
29052.5897
 40
7.1
  0
CIRCLE
  8
4-2
 62
     7
  6
CONTINUOUS
 10
68464.9563
 20
24998.2903
 40
71
  0
CIRCLE
  8
4-2
 62
     7
  6
CONTINUOUS
 10
65624.9563
 20
24998.2903
 40
71
  0
CIRCLE
  8
4-2
 62
     7
  6
CONTINUOUS
 10
65624.9563
 20
29052.5897
 40
7.1
  0
CIRCLE
  8
4-2
 62
     7
  6
CONTINUOUS
 10
65624.9563
 20
29052.5897
 40
21.3
  0
CIRCLE
  8
4-2
 62
     7
  6
CONTINUOUS
 10
65624.9563
 20
29052.5897
 40
35.5
  0
CIRCLE
  8
4-2
 62
     7
  6
CONTINUOUS
 10
38867.8996
 20
34279.2447
 40
35.5
  0
CIRCLE
  8
4-2
 62
     7
  6
CONTINUOUS
 10
38867.8996
 20
34279.2447
 40
21.3
  0
CIRCLE
  8
4-2
 62
     7
  6
CONTINUOUS
 10
38867.8996
 20
34279.2447
 40
7.1
  0
CIRCLE
  8
4-2
 62
     7
  6
CONTINUOUS
 10
28927.8996
 20
34279.2447
 40
35.5
  0
CIRCLE
  8
4-2
 62
     7
  6
CONTINUOUS
 10
28927.8996
 20
34279.2447
 40
21.3
  0
CIRCLE
  8
4-2
 62
     7
  6
CONTINUOUS
 10
28927.8996
 20
34279.2447
 40
7.1
  0
CIRCLE
  8
4-2
 62
     7
  6
CONTINUOUS
 10
16147.8996
 20
34279.2447
 40
35.5
  0
CIRCLE
  8
4-2
 62
     7
  6
CONTINUOUS
 10
16147.8996
 20
34279.2447
 40
21.3
  0
CIRCLE
  8
4-2
 62
     7
  6
CONTINUOUS
 10
16147.8996
 20
34279.2447
 40
7.1
  0
CIRCLE
  8
4-2
 62
     7
  6
CONTINUOUS
 10
31165.0126
 20
42948.715
 40
35.5
  0
CIRCLE
  8
4-2
 62
     7
  6
CONTINUOUS
 10
31165.0126
 20
42948.715
 40
21.3
  0
CIRCLE
  8
4-2
 62
     7
  6
CONTINUOUS
 10
31165.0126
 20
42948.715
 40
7.1
  0
CIRCLE
  8
4-2
 62
     7
  6
CONTINUOUS
 10
51555.6709
 20
37908.9081
 40
35.5
  0
CIRCLE
  8
4-2
 62
     7
  6
CONTINUOUS
 10
51555.6709
 20
37908.9081
 40
21.3
  0
CIRCLE
  8
4-2
 62
     7
  6
CONTINUOUS
 10
51555.6709
 20
37908.9081
 40
7.1
  0
CIRCLE
  8
4-2
 62
     7
  6
CONTINUOUS
 10
40216.229
 20
37908.9081
 40
35.5
  0
CIRCLE
  8
4-2
 62
     7
  6
CONTINUOUS
 10
40216.229
 20
37908.9081
 40
21.3
  0
CIRCLE
  8
4-2
 62
     7
  6
CONTINUOUS
 10
40216.229
 20
37908.9081
 40
7.1
  0
CIRCLE
  8
4-2
 62
     7
  6
CONTINUOUS
 10
30254.1449
 20
37908.9081
 40
35.5
  0
CIRCLE
  8
4-2
 62
     7
  6
CONTINUOUS
 10
30254.1449
 20
37908.9081
 40
21.3
  0
CIRCLE
  8
4-2
 62
     7
  6
CONTINUOUS
 10
30254.1449
 20
37908.9081
 40
7.1
  0
CIRCLE
  8
4-2
 62
     7
  6
CONTINUOUS
 10
17480.0141
 20
37908.9081
 40
35.5
  0
CIRCLE
  8
4-2
 62
     7
  6
CONTINUOUS
 10
17480.0141
 20
37908.9081
 40
21.3
  0
CIRCLE
  8
4-2
 62
     7
  6
CONTINUOUS
 10
17480.0141
 20
37908.9081
 40
7.1
  0
CIRCLE
  8
4-2
 62
     7
  6
CONTINUOUS
 10
30234.9563
 20
54243.9088
 40
7.1
  0
CIRCLE
  8
4-2
 62
     7
  6
CONTINUOUS
 10
30234.9563
 20
54243.9088
 40
21.3
  0
CIRCLE
  8
4-2
 62
     7
  6
CONTINUOUS
 10
30234.9563
 20
54243.9088
 40
35.5
  0
CIRCLE
  8
4-2
 62
     7
  6
CONTINUOUS
 10
28650.1237
 20
44139.7334
 40
7.1
  0
CIRCLE
  8
4-2
 62
     7
  6
CONTINUOUS
 10
28650.1237
 20
44139.7334
 40
21.3
  0
CIRCLE
  8
4-2
 62
     7
  6
CONTINUOUS
 10
28650.1237
 20
44139.7334
 40
35.5
  0
CIRCLE
  8
4-2
 62
     7
  6
CONTINUOUS
 10
28650.1237
 20
47300.9163
 40
7.1
  0
CIRCLE
  8
4-2
 62
     7
  6
CONTINUOUS
 10
28650.1237
 20
47300.9163
 40
21.3
  0
CIRCLE
  8
4-2
 62
     7
  6
CONTINUOUS
 10
28650.1237
 20
47300.9163
 40
35.5
  0
ARC
  8
4-2
 62
     7
  6
CONTINUOUS
 10
54264.6618
 20
27073.8217
 40
60
 50
90
 51
270
  0
ARC
  8
4-2
 62
     7
  6
CONTINUOUS
 10
54264.6618
 20
25523.7877
 40
100
 50
270
 51
450
  0
ARC
  8
4-2
 62
     7
  6
CONTINUOUS
 10
54264.6618
 20
25723.7877
 40
100
 50
270
 51
450
  0
ARC
  8
4-2
 62
     7
  6
CONTINUOUS
 10
54264.6618
 20
25923.7877
 40
100
 50
270
 51
450
  0
ARC
  8
4-2
 62
     7
  6
CONTINUOUS
 10
54264.6618
 20
26123.7877
 40
100
 50
270
 51
450
  0
CIRCLE
  8
4-2
 62
     7
  6
CONTINUOUS
 10
54264.6619
 20
27374.5219
 40
7.1
  0
CIRCLE
  8
4-2
 62
     7
  6
CONTINUOUS
 10
54264.6619
 20
27374.5219
 40
21.3
  0
CIRCLE
  8
4-2
 62
     7
  6
CONTINUOUS
 10
54264.6619
 20
27374.5219
 40
35.5
  0
CIRCLE
  8
4-2
 62
     7
  6
CONTINUOUS
 10
38238.7872
 20
34846.6627
 40
35.5
  0
CIRCLE
  8
4-2
 62
     7
  6
CONTINUOUS
 10
38238.7872
 20
34846.6627
 40
21.3
  0
CIRCLE
  8
4-2
 62
     7
  6
CONTINUOUS
 10
38238.7872
 20
34846.6627
 40
7.1
  0
CIRCLE
  8
4-2
 62
     7
  6
CONTINUOUS
 10
28297.6302
 20
34846.6627
 40
35.5
  0
CIRCLE
  8
4-2
 62
     7
  6
CONTINUOUS
 10
28297.6302
 20
34846.6627
 40
21.3
  0
CIRCLE
  8
4-2
 62
     7
  6
CONTINUOUS
 10
28297.6302
 20
34846.6627
 40
7.1
  0
CIRCLE
  8
4-2
 62
     7
  6
CONTINUOUS
 10
15517.6302
 20
34846.6627
 40
7.1
  0
CIRCLE
  8
4-2
 62
     7
  6
CONTINUOUS
 10
15517.6302
 20
34846.6627
 40
21.3
  0
CIRCLE
  8
4-2
 62
     7
  6
CONTINUOUS
 10
15517.6302
 20
34846.6627
 40
35.5
  0
CIRCLE
  8
4-2
 62
     7
  6
CONTINUOUS
 10
54264.9563
 20
27374.5219
 40
35.5
  0
CIRCLE
  8
4-2
 62
     7
  6
CONTINUOUS
 10
54264.9563
 20
27374.5219
 40
21.3
  0
CIRCLE
  8
4-2
 62
     7
  6
CONTINUOUS
 10
54264.9563
 20
27374.5219
 40
7.1
  0
CIRCLE
  8
4-2
 62
     7
  6
CONTINUOUS
 10
55684.9563
 20
27374.5219
 40
35.5
  0
CIRCLE
  8
4-2
 62
     7
  6
CONTINUOUS
 10
55684.9563
 20
27374.5219
 40
21.3
  0
CIRCLE
  8
4-2
 62
     7
  6
CONTINUOUS
 10
55684.9563
 20
27374.5219
 40
7.1
  0
CIRCLE
  8
4-2
 62
     7
  6
CONTINUOUS
 10
57104.9563
 20
27374.5219
 40
35.5
  0
CIRCLE
  8
4-2
 62
     7
  6
CONTINUOUS
 10
57104.9563
 20
27374.5219
 40
21.3
  0
CIRCLE
  8
4-2
 62
     7
  6
CONTINUOUS
 10
57104.9563
 20
27374.5219
 40
7.1
  0
ARC
  8
4-2
 62
     7
  6
CONTINUOUS
 10
55684.9563
 20
26123.7877
 40
100
 50
270
 51
450
  0
ARC
  8
4-2
 62
     7
  6
CONTINUOUS
 10
55684.9563
 20
25923.7877
 40
100
 50
270
 51
450
  0
ARC
  8
4-2
 62
     7
  6
CONTINUOUS
 10
55684.9563
 20
25723.7877
 40
100
 50
270
 51
450
  0
ARC
  8
4-2
 62
     7
  6
CONTINUOUS
 10
55684.9562
 20
25523.7877
 40
100
 50
270
 51
450
  0
ARC
  8
4-2
 62
     7
  6
CONTINUOUS
 10
57104.9563
 20
26123.7877
 40
100
 50
270
 51
450
  0
ARC
  8
4-2
 62
     7
  6
CONTINUOUS
 10
57104.9563
 20
25923.7877
 40
100
 50
270
 51
450
  0
ARC
  8
4-2
 62
     7
  6
CONTINUOUS
 10
57104.9563
 20
25723.7877
 40
100
 50
270
 51
450
  0
ARC
  8
4-2
 62
     7
  6
CONTINUOUS
 10
57104.9563
 20
25523.7877
 40
100
 50
270
 51
450
  0
ARC
  8
4-2
 62
     7
  6
CONTINUOUS
 10
58524.9563
 20
26123.7877
 40
100
 50
270
 51
450
  0
ARC
  8
4-2
 62
     7
  6
CONTINUOUS
 10
58524.9563
 20
25923.7877
 40
100
 50
270
 51
450
  0
ARC
  8
4-2
 62
     7
  6
CONTINUOUS
 10
58524.9563
 20
25723.7877
 40
100
 50
270
 51
450
  0
ARC
  8
4-2
 62
     7
  6
CONTINUOUS
 10
58524.9562
 20
25523.7877
 40
100
 50
270
 51
450
  0
ARC
  8
4-2
 62
     7
  6
CONTINUOUS
 10
55684.9563
 20
27073.8216
 40
60
 50
90
 51
270
  0
ARC
  8
4-2
 62
     7
  6
CONTINUOUS
 10
57104.9563
 20
27073.8216
 40
60
 50
90
 51
270
  0
ARC
  8
4-2
 62
     7
  6
CONTINUOUS
 10
58524.9563
 20
27053.55
 40
60
 50
90
 51
270
  0
CIRCLE
  8
4-2
 62
     7
  6
CONTINUOUS
 10
40012.8931
 20
47812.6659
 40
56.8
  0
CIRCLE
  8
4-2
 62
     7
  6
CONTINUOUS
 10
40012.893
 20
43592.4589
 40
56.8
  0
CIRCLE
  8
4-2
 62
     7
  6
CONTINUOUS
 10
40012.893
 20
43862.2955
 40
56.8
  0
CIRCLE
  8
4-2
 62
     7
  6
CONTINUOUS
 10
40012.893
 20
44150.2138
 40
56.8
  0
CIRCLE
  8
4-2
 62
     7
  6
CONTINUOUS
 10
40012.893
 20
44434.1359
 40
56.8
  0
CIRCLE
  8
4-2
 62
     7
  6
CONTINUOUS
 10
40012.893
 20
44876.6605
 40
56.8
  0
CIRCLE
  8
4-2
 62
     7
  6
CONTINUOUS
 10
39260.1667
 20
45787.3703
 40
35.5
  0
CIRCLE
  8
4-2
 62
     7
  6
CONTINUOUS
 10
39260.1667
 20
45787.3703
 40
21.3
  0
CIRCLE
  8
4-2
 62
     7
  6
CONTINUOUS
 10
39260.1667
 20
45787.3703
 40
7.1
  0
CIRCLE
  8
4-2
 62
     7
  6
CONTINUOUS
 10
40731.6624
 20
45787.3703
 40
284
  0
CIRCLE
  8
4-2
 62
     7
  6
CONTINUOUS
 10
40021.6624
 20
45787.3703
 40
106.5
  0
CIRCLE
  8
4-2
 62
     7
  6
CONTINUOUS
 10
38113.878
 20
44012.3703
 40
7.1
  0
CIRCLE
  8
4-2
 62
     7
  6
CONTINUOUS
 10
38113.878
 20
44012.3703
 40
21.3
  0
CIRCLE
  8
4-2
 62
     7
  6
CONTINUOUS
 10
38113.878
 20
44012.3703
 40
35.5
  0
CIRCLE
  8
4-2
 62
     7
  6
CONTINUOUS
 10
37598.4662
 20
44012.3703
 40
7.1
  0
CIRCLE
  8
4-2
 62
     7
  6
CONTINUOUS
 10
37598.4662
 20
44012.3703
 40
21.3
  0
CIRCLE
  8
4-2
 62
     7
  6
CONTINUOUS
 10
37598.4662
 20
44012.3703
 40
35.5
  0
CIRCLE
  8
4-2
 62
     7
  6
CONTINUOUS
 10
40009.1739
 20
42947.3703
 40
106.5
  0
CIRCLE
  8
4-2
 62
     7
  6
CONTINUOUS
 10
40719.1739
 20
42947.3703
 40
284
  0
CIRCLE
  8
4-2
 62
     7
  6
CONTINUOUS
 10
35969.5768
 20
45787.3703
 40
35.5
  0
CIRCLE
  8
4-2
 62
     7
  6
CONTINUOUS
 10
35969.5768
 20
45787.3703
 40
21.3
  0
CIRCLE
  8
4-2
 62
     7
  6
CONTINUOUS
 10
35969.5768
 20
45787.3703
 40
7.1
  0
CIRCLE
  8
4-2
 62
     7
  6
CONTINUOUS
 10
35320.6037
 20
42947.3703
 40
284
  0
CIRCLE
  8
4-2
 62
     7
  6
CONTINUOUS
 10
36113.1807
 20
42947.3703
 40
284
  0
CIRCLE
  8
4-2
 62
     7
  6
CONTINUOUS
 10
36113.1807
 20
44012.3703
 40
35.5
  0
CIRCLE
  8
4-2
 62
     7
  6
CONTINUOUS
 10
36113.1807
 20
44012.3703
 40
21.3
  0
CIRCLE
  8
4-2
 62
     7
  6
CONTINUOUS
 10
36113.1807
 20
44012.3703
 40
7.1
  0
ARC
  8
4-2
 62
     7
  6
CONTINUOUS
 10
31034.9563
 20
44251.8693
 40
100
 50
270
 51
450
  0
ARC
  8
4-2
 62
     7
  6
CONTINUOUS
 10
31034.9563
 20
44451.8693
 40
100
 50
270
 51
450
  0
ARC
  8
4-2
 62
     7
  6
CONTINUOUS
 10
30834.9563
 20
43551.8693
 40
200
 50
180
 51
360
  0
ARC
  8
4-2
 62
     7
  6
CONTINUOUS
 10
30834.9563
 20
44851.8693
 40
200
 50
0
 51
180
  0
CIRCLE
  8
4-2
 62
     7
  6
CONTINUOUS
 10
31802.4195
 20
42948.715
 40
50
  0
CIRCLE
  8
4-2
 62
     7
  6
CONTINUOUS
 10
31502.4195
 20
42948.715
 40
50
  0
ARC
  8
4-2
 62
     7
  6
CONTINUOUS
 10
30729.9563
 20
42686.215
 40
87.5
 50
90
 51
270
  0
ARC
  8
4-2
 62
     7
  6
CONTINUOUS
 10
30729.9563
 20
42861.215
 40
87.5
 50
90
 51
270
  0
CIRCLE
  8
4-2
 62
     7
  6
CONTINUOUS
 10
35454.8105
 20
45787.3703
 40
50
  0
CIRCLE
  8
4-2
 62
     7
  6
CONTINUOUS
 10
35454.8105
 20
45787.3703
 40
40
  0
CIRCLE
  8
4-2
 62
     7
  6
CONTINUOUS
 10
35454.8105
 20
45787.3703
 40
30
  0
CIRCLE
  8
4-2
 62
     7
  6
CONTINUOUS
 10
35454.8105
 20
45787.3703
 40
20
  0
CIRCLE
  8
4-2
 62
     7
  6
CONTINUOUS
 10
35454.8105
 20
45787.3703
 40
10
  0
CIRCLE
  8
4-2
 62
     7
  6
CONTINUOUS
 10
33567.2532
 20
45787.3703
 40
35.5
  0
CIRCLE
  8
4-2
 62
     7
  6
CONTINUOUS
 10
33567.2532
 20
45787.3703
 40
21.3
  0
CIRCLE
  8
4-2
 62
     7
  6
CONTINUOUS
 10
33567.2532
 20
45787.3703
 40
7.1
  0
CIRCLE
  8
4-2
 62
     7
  6
CONTINUOUS
 10
32865.67
 20
45787.3703
 40
150
  0
CIRCLE
  8
4-2
 62
     7
  6
CONTINUOUS
 10
32615.67
 20
45787.3703
 40
150
  0
CIRCLE
  8
4-2
 62
     7
  6
CONTINUOUS
 10
35427.0943
 20
52110.486
 40
56.8
  0
CIRCLE
  8
4-2
 62
     7
  6
CONTINUOUS
 10
32311.865
 20
53342.5599
 40
56.8
  0
ARC
  8
4-2
 62
     7
  6
CONTINUOUS
 10
31234.9562
 20
52143.9088
 40
100
 50
275
 51
630
  0
ARC
  8
4-2
 62
     7
  6
CONTINUOUS
 10
31084.9562
 20
52143.9088
 40
100
 50
275
 51
630
  0
CIRCLE
  8
4-2
 62
     7
  6
CONTINUOUS
 10
31394.9563
 20
52793.9088
 40
100
  0
CIRCLE
  8
4-2
 62
     7
  6
CONTINUOUS
 10
31394.9563
 20
52943.9088
 40
100
  0
ARC
  8
4-2
 62
     7
  6
CONTINUOUS
 10
30734.9563
 20
53043.9088
 40
100
 50
90
 51
270
  0
ARC
  8
4-2
 62
     7
  6
CONTINUOUS
 10
30734.9563
 20
53243.9088
 40
100
 50
90
 51
270
  0
ARC
  8
4-2
 62
     7
  6
CONTINUOUS
 10
31034.9563
 20
53743.9088
 40
100
 50
270
 51
450
  0
ARC
  8
4-2
 62
     7
  6
CONTINUOUS
 10
31034.9563
 20
53943.9088
 40
100
 50
270
 51
450
  0
CIRCLE
  8
4-2
 62
     7
  6
CONTINUOUS
 10
30834.9563
 20
54063.9088
 40
80
  0
CIRCLE
  8
4-2
 62
     7
  6
CONTINUOUS
 10
52134.9562
 20
36531.3143
 40
450
  0
CIRCLE
  8
4-2
 62
     7
  6
CONTINUOUS
 10
52134.9563
 20
37131.3143
 40
450
  0
CIRCLE
  8
4-2
 62
     7
  6
CONTINUOUS
 10
36869.9563
 20
44012.3703
 40
7.1
  0
CIRCLE
  8
4-2
 62
     7
  6
CONTINUOUS
 10
36869.9563
 20
44012.3703
 40
21.3
  0
CIRCLE
  8
4-2
 62
     7
  6
CONTINUOUS
 10
36869.9563
 20
44012.3703
 40
35.5
  0
CIRCLE
  8
4-2
 62
     7
  6
CONTINUOUS
 10
36869.9563
 20
45787.3703
 40
7.1
  0
CIRCLE
  8
4-2
 62
     7
  6
CONTINUOUS
 10
36869.9563
 20
45787.3703
 40
21.3
  0
CIRCLE
  8
4-2
 62
     7
  6
CONTINUOUS
 10
36869.9563
 20
45787.3703
 40
35.5
  0
CIRCLE
  8
4-2
 62
     7
  6
CONTINUOUS
 10
30834.9563
 20
45787.3703
 40
7.1
  0
CIRCLE
  8
4-2
 62
     7
  6
CONTINUOUS
 10
30834.9563
 20
45787.3703
 40
21.3
  0
CIRCLE
  8
4-2
 62
     7
  6
CONTINUOUS
 10
30834.9563
 20
45787.3703
 40
35.5
  0
CIRCLE
  8
4-2
 62
     7
  6
CONTINUOUS
 10
36869.9563
 20
42947.3703
 40
284
  0
CIRCLE
  8
4-2
 62
     7
  6
CONTINUOUS
 10
40774.9563
 20
39695.29
 40
35.5
  0
CIRCLE
  8
4-2
 62
     7
  6
CONTINUOUS
 10
40774.9563
 20
39695.29
 40
21.3
  0
CIRCLE
  8
4-2
 62
     7
  6
CONTINUOUS
 10
40774.9563
 20
39695.29
 40
7.1
  0
CIRCLE
  8
4-2
 62
     7
  6
CONTINUOUS
 10
30834.9563
 20
39695.29
 40
35.5
  0
CIRCLE
  8
4-2
 62
     7
  6
CONTINUOUS
 10
30834.9563
 20
39695.29
 40
21.3
  0
CIRCLE
  8
4-2
 62
     7
  6
CONTINUOUS
 10
30834.9563
 20
39695.29
 40
7.1
  0
CIRCLE
  8
4-2
 62
     7
  6
CONTINUOUS
 10
52134.9563
 20
29052.5897
 40
35.5
  0
CIRCLE
  8
4-2
 62
     7
  6
CONTINUOUS
 10
52134.9563
 20
29052.5897
 40
21.3
  0
CIRCLE
  8
4-2
 62
     7
  6
CONTINUOUS
 10
52134.9563
 20
29052.5897
 40
7.1
  0
CIRCLE
  8
4-2
 62
     7
  6
CONTINUOUS
 10
40774.9563
 20
29052.5897
 40
35.5
  0
CIRCLE
  8
4-2
 62
     7
  6
CONTINUOUS
 10
40774.9563
 20
29052.5897
 40
21.3
  0
CIRCLE
  8
4-2
 62
     7
  6
CONTINUOUS
 10
40774.9563
 20
29052.5897
 40
7.1
  0
ARC
  8
4-2
 62
     7
  6
CONTINUOUS
 10
52046.2063
 20
31867.5403
 40
88.75
 50
90
 51
270
  0
ARC
  8
4-2
 62
     7
  6
CONTINUOUS
 10
52046.2063
 20
31690.0403
 40
88.75
 50
90
 51
270
  0
CIRCLE
  8
4-2
 62
     7
  6
CONTINUOUS
 10
52134.9363
 20
33163.2903
 40
35.5
  0
CIRCLE
  8
4-2
 62
     7
  6
CONTINUOUS
 10
52134.9363
 20
33163.2903
 40
21.3
  0
CIRCLE
  8
4-2
 62
     7
  6
CONTINUOUS
 10
52134.9363
 20
33163.2903
 40
7.1
  0
ARC
  8
4-2
 62
     7
  6
CONTINUOUS
 10
49492.8996
 20
35720.2645
 40
87.5
 50
90
 51
270
  0
ARC
  8
4-2
 62
     7
  6
CONTINUOUS
 10
49492.8996
 20
35545.2645
 40
87.5
 50
90
 51
270
  0
CIRCLE
  8
4-2
 62
     7
  6
CONTINUOUS
 10
52134.9563
 20
38840.5539
 40
80
  0
CIRCLE
  8
4-2
 62
     7
  6
CONTINUOUS
 10
54011.3128
 20
33163.2903
 40
100
  0
CIRCLE
  8
4-2
 62
     7
  6
CONTINUOUS
 10
54025.9795
 20
31956.2903
 40
100
  0
CIRCLE
  8
4-2
 62
     7
  6
CONTINUOUS
 10
54937.4351
 20
33163.2903
 40
250
  0
CIRCLE
  8
4-2
 62
     7
  6
CONTINUOUS
 10
54923.11
 20
31956.2903
 40
250
  0
ARC
  8
4-2
 62
     7
  6
CONTINUOUS
 10
40686.2063
 20
31867.5403
 40
88.75
 50
90
 51
270
  0
ARC
  8
4-2
 62
     7
  6
CONTINUOUS
 10
40686.2063
 20
31690.0403
 40
88.75
 50
90
 51
270
  0
CIRCLE
  8
4-2
 62
     7
  6
CONTINUOUS
 10
40774.9363
 20
33163.2903
 40
35.5
  0
CIRCLE
  8
4-2
 62
     7
  6
CONTINUOUS
 10
40774.9363
 20
33163.2903
 40
21.3
  0
CIRCLE
  8
4-2
 62
     7
  6
CONTINUOUS
 10
40774.9363
 20
33163.2903
 40
7.1
  0
ARC
  8
4-2
 62
     7
  6
CONTINUOUS
 10
38132.8996
 20
35720.2645
 40
87.5
 50
90
 51
270
  0
ARC
  8
4-2
 62
     7
  6
CONTINUOUS
 10
38132.8996
 20
35545.2645
 40
87.5
 50
90
 51
270
  0
CIRCLE
  8
4-2
 62
     7
  6
CONTINUOUS
 10
40774.9562
 20
36531.9034
 40
450
  0
CIRCLE
  8
4-2
 62
     7
  6
CONTINUOUS
 10
40774.9563
 20
37131.9034
 40
450
  0
CIRCLE
  8
4-2
 62
     7
  6
CONTINUOUS
 10
40774.9563
 20
38840.5539
 40
80
  0
CIRCLE
  8
4-2
 62
     7
  6
CONTINUOUS
 10
42651.3128
 20
33163.2903
 40
100
  0
CIRCLE
  8
4-2
 62
     7
  6
CONTINUOUS
 10
42665.9795
 20
31956.2903
 40
100
  0
CIRCLE
  8
4-2
 62
     7
  6
CONTINUOUS
 10
43577.4351
 20
33163.2903
 40
250
  0
CIRCLE
  8
4-2
 62
     7
  6
CONTINUOUS
 10
43563.11
 20
31956.2903
 40
250
  0
CIRCLE
  8
4-2
 62
     7
  6
CONTINUOUS
 10
30834.9563
 20
29052.5897
 40
7.1
  0
CIRCLE
  8
4-2
 62
     7
  6
CONTINUOUS
 10
30834.9563
 20
29052.5897
 40
21.3
  0
CIRCLE
  8
4-2
 62
     7
  6
CONTINUOUS
 10
30834.9563
 20
29052.5897
 40
35.5
  0
ARC
  8
4-2
 62
     7
  6
CONTINUOUS
 10
30746.2063
 20
31867.5403
 40
88.75
 50
90
 51
270
  0
ARC
  8
4-2
 62
     7
  6
CONTINUOUS
 10
30746.2063
 20
31690.0403
 40
88.75
 50
90
 51
270
  0
CIRCLE
  8
4-2
 62
     7
  6
CONTINUOUS
 10
30834.9363
 20
33163.2903
 40
35.5
  0
CIRCLE
  8
4-2
 62
     7
  6
CONTINUOUS
 10
30834.9363
 20
33163.2903
 40
21.3
  0
CIRCLE
  8
4-2
 62
     7
  6
CONTINUOUS
 10
30834.9363
 20
33163.2903
 40
7.1
  0
ARC
  8
4-2
 62
     7
  6
CONTINUOUS
 10
28192.8996
 20
35720.2645
 40
87.5
 50
90
 51
270
  0
ARC
  8
4-2
 62
     7
  6
CONTINUOUS
 10
28192.8996
 20
35545.2645
 40
87.5
 50
90
 51
270
  0
CIRCLE
  8
4-2
 62
     7
  6
CONTINUOUS
 10
30834.9562
 20
36531.9034
 40
450
  0
CIRCLE
  8
4-2
 62
     7
  6
CONTINUOUS
 10
30834.9563
 20
37131.9034
 40
450
  0
CIRCLE
  8
4-2
 62
     7
  6
CONTINUOUS
 10
30834.9563
 20
38840.5539
 40
80
  0
CIRCLE
  8
4-2
 62
     7
  6
CONTINUOUS
 10
32711.3128
 20
33163.2903
 40
100
  0
CIRCLE
  8
4-2
 62
     7
  6
CONTINUOUS
 10
32725.9795
 20
31956.2903
 40
100
  0
CIRCLE
  8
4-2
 62
     7
  6
CONTINUOUS
 10
33637.4351
 20
33163.2903
 40
250
  0
CIRCLE
  8
4-2
 62
     7
  6
CONTINUOUS
 10
33623.11
 20
31956.2903
 40
250
  0
CIRCLE
  8
4-2
 62
     7
  6
CONTINUOUS
 10
20843.11
 20
31956.2903
 40
250
  0
CIRCLE
  8
4-2
 62
     7
  6
CONTINUOUS
 10
20857.4351
 20
33163.2903
 40
250
  0
CIRCLE
  8
4-2
 62
     7
  6
CONTINUOUS
 10
19945.9795
 20
31956.2903
 40
100
  0
CIRCLE
  8
4-2
 62
     7
  6
CONTINUOUS
 10
19931.3128
 20
33163.2903
 40
100
  0
CIRCLE
  8
4-2
 62
     7
  6
CONTINUOUS
 10
18054.9563
 20
38840.5539
 40
80
  0
CIRCLE
  8
4-2
 62
     7
  6
CONTINUOUS
 10
18054.9563
 20
37131.9034
 40
450
  0
CIRCLE
  8
4-2
 62
     7
  6
CONTINUOUS
 10
18054.9562
 20
36531.9034
 40
450
  0
CIRCLE
  8
4-2
 62
     7
  6
CONTINUOUS
 10
18054.9563
 20
29052.5897
 40
35.5
  0
CIRCLE
  8
4-2
 62
     7
  6
CONTINUOUS
 10
18054.9563
 20
29052.5897
 40
21.3
  0
CIRCLE
  8
4-2
 62
     7
  6
CONTINUOUS
 10
18054.9563
 20
29052.5897
 40
7.1
  0
CIRCLE
  8
4-2
 62
     7
  6
CONTINUOUS
 10
64204.9563
 20
29052.5897
 40
35.5
  0
CIRCLE
  8
4-2
 62
     7
  6
CONTINUOUS
 10
64204.9563
 20
29052.5897
 40
21.3
  0
CIRCLE
  8
4-2
 62
     7
  6
CONTINUOUS
 10
64204.9563
 20
29052.5897
 40
7.1
  0
CIRCLE
  8
4-2
 62
     7
  6
CONTINUOUS
 10
40064.9563
 20
29052.5897
 40
7.1
  0
CIRCLE
  8
4-2
 62
     7
  6
CONTINUOUS
 10
40064.9563
 20
29052.5897
 40
21.3
  0
CIRCLE
  8
4-2
 62
     7
  6
CONTINUOUS
 10
40064.9563
 20
29052.5897
 40
35.5
  0
CIRCLE
  8
4-2
 62
     7
  6
CONTINUOUS
 10
38644.9563
 20
29052.5897
 40
7.1
  0
CIRCLE
  8
4-2
 62
     7
  6
CONTINUOUS
 10
38644.9563
 20
29052.5897
 40
21.3
  0
CIRCLE
  8
4-2
 62
     7
  6
CONTINUOUS
 10
38644.9563
 20
29052.5897
 40
35.5
  0
CIRCLE
  8
4-2
 62
     7
  6
CONTINUOUS
 10
44324.9563
 20
29052.5897
 40
35.5
  0
CIRCLE
  8
4-2
 62
     7
  6
CONTINUOUS
 10
44324.9563
 20
29052.5897
 40
21.3
  0
CIRCLE
  8
4-2
 62
     7
  6
CONTINUOUS
 10
44324.9563
 20
29052.5897
 40
7.1
  0
CIRCLE
  8
4-2
 62
     7
  6
CONTINUOUS
 10
45744.9563
 20
29052.5897
 40
35.5
  0
CIRCLE
  8
4-2
 62
     7
  6
CONTINUOUS
 10
45744.9563
 20
29052.5897
 40
21.3
  0
CIRCLE
  8
4-2
 62
     7
  6
CONTINUOUS
 10
45744.9563
 20
29052.5897
 40
7.1
  0
CIRCLE
  8
4-2
 62
     7
  6
CONTINUOUS
 10
52844.9563
 20
29052.5897
 40
7.1
  0
CIRCLE
  8
4-2
 62
     7
  6
CONTINUOUS
 10
52844.9563
 20
29052.5897
 40
21.3
  0
CIRCLE
  8
4-2
 62
     7
  6
CONTINUOUS
 10
52844.9563
 20
29052.5897
 40
35.5
  0
CIRCLE
  8
4-2
 62
     7
  6
CONTINUOUS
 10
51424.9563
 20
29052.5897
 40
35.5
  0
CIRCLE
  8
4-2
 62
     7
  6
CONTINUOUS
 10
51424.9563
 20
29052.5897
 40
21.3
  0
CIRCLE
  8
4-2
 62
     7
  6
CONTINUOUS
 10
51424.9563
 20
29052.5897
 40
7.1
  0
CIRCLE
  8
4-2
 62
     7
  6
CONTINUOUS
 10
28704.9563
 20
29052.5897
 40
7.1
  0
CIRCLE
  8
4-2
 62
     7
  6
CONTINUOUS
 10
28704.9563
 20
29052.5897
 40
21.3
  0
CIRCLE
  8
4-2
 62
     7
  6
CONTINUOUS
 10
28704.9563
 20
29052.5897
 40
35.5
  0
CIRCLE
  8
4-2
 62
     7
  6
CONTINUOUS
 10
27284.9563
 20
29052.5897
 40
7.1
  0
CIRCLE
  8
4-2
 62
     7
  6
CONTINUOUS
 10
27284.9563
 20
29052.5897
 40
21.3
  0
CIRCLE
  8
4-2
 62
     7
  6
CONTINUOUS
 10
27284.9563
 20
29052.5897
 40
35.5
  0
CIRCLE
  8
4-2
 62
     7
  6
CONTINUOUS
 10
30124.9563
 20
29052.5897
 40
35.5
  0
CIRCLE
  8
4-2
 62
     7
  6
CONTINUOUS
 10
30124.9563
 20
29052.5897
 40
21.3
  0
CIRCLE
  8
4-2
 62
     7
  6
CONTINUOUS
 10
30124.9563
 20
29052.5897
 40
7.1
  0
CIRCLE
  8
4-2
 62
     7
  6
CONTINUOUS
 10
31544.9563
 20
29052.5897
 40
35.5
  0
CIRCLE
  8
4-2
 62
     7
  6
CONTINUOUS
 10
31544.9563
 20
29052.5897
 40
21.3
  0
CIRCLE
  8
4-2
 62
     7
  6
CONTINUOUS
 10
31544.9563
 20
29052.5897
 40
7.1
  0
CIRCLE
  8
4-2
 62
     7
  6
CONTINUOUS
 10
32964.9563
 20
29052.5897
 40
35.5
  0
CIRCLE
  8
4-2
 62
     7
  6
CONTINUOUS
 10
32964.9563
 20
29052.5897
 40
21.3
  0
CIRCLE
  8
4-2
 62
     7
  6
CONTINUOUS
 10
32964.9563
 20
29052.5897
 40
7.1
  0
CIRCLE
  8
4-2
 62
     7
  6
CONTINUOUS
 10
34384.9563
 20
29052.5897
 40
35.5
  0
CIRCLE
  8
4-2
 62
     7
  6
CONTINUOUS
 10
34384.9563
 20
29052.5897
 40
21.3
  0
CIRCLE
  8
4-2
 62
     7
  6
CONTINUOUS
 10
34384.9563
 20
29052.5897
 40
7.1
  0
CIRCLE
  8
4-2
 62
     7
  6
CONTINUOUS
 10
21604.9563
 20
29052.5897
 40
7.1
  0
CIRCLE
  8
4-2
 62
     7
  6
CONTINUOUS
 10
21604.9563
 20
29052.5897
 40
21.3
  0
CIRCLE
  8
4-2
 62
     7
  6
CONTINUOUS
 10
21604.9563
 20
29052.5897
 40
35.5
  0
CIRCLE
  8
4-2
 62
     7
  6
CONTINUOUS
 10
20184.9563
 20
29052.5897
 40
7.1
  0
CIRCLE
  8
4-2
 62
     7
  6
CONTINUOUS
 10
20184.9563
 20
29052.5897
 40
21.3
  0
CIRCLE
  8
4-2
 62
     7
  6
CONTINUOUS
 10
20184.9563
 20
29052.5897
 40
35.5
  0
CIRCLE
  8
4-2
 62
     7
  6
CONTINUOUS
 10
18764.9563
 20
29052.5897
 40
7.1
  0
CIRCLE
  8
4-2
 62
     7
  6
CONTINUOUS
 10
18764.9563
 20
29052.5897
 40
21.3
  0
CIRCLE
  8
4-2
 62
     7
  6
CONTINUOUS
 10
18764.9563
 20
29052.5897
 40
35.5
  0
CIRCLE
  8
4-2
 62
     7
  6
CONTINUOUS
 10
15924.9563
 20
29052.5897
 40
35.5
  0
CIRCLE
  8
4-2
 62
     7
  6
CONTINUOUS
 10
15924.9563
 20
29052.5897
 40
21.3
  0
CIRCLE
  8
4-2
 62
     7
  6
CONTINUOUS
 10
15924.9563
 20
29052.5897
 40
7.1
  0
CIRCLE
  8
4-2
 62
     7
  6
CONTINUOUS
 10
17344.9563
 20
29052.5897
 40
35.5
  0
CIRCLE
  8
4-2
 62
     7
  6
CONTINUOUS
 10
17344.9563
 20
29052.5897
 40
21.3
  0
CIRCLE
  8
4-2
 62
     7
  6
CONTINUOUS
 10
17344.9563
 20
29052.5897
 40
7.1
  0
ARC
  8
4-2
 62
     7
  6
CONTINUOUS
 10
15412.8996
 20
35545.2645
 40
87.5
 50
90
 51
270
  0
ARC
  8
4-2
 62
     7
  6
CONTINUOUS
 10
15412.8996
 20
35720.2645
 40
87.5
 50
90
 51
270
  0
CIRCLE
  8
4-2
 62
     7
  6
CONTINUOUS
 10
17344.9563
 20
24998.2903
 40
71
  0
CIRCLE
  8
4-2
 62
     7
  6
CONTINUOUS
 10
15924.9563
 20
24998.2903
 40
71
  0
CIRCLE
  8
4-2
 62
     7
  6
CONTINUOUS
 10
14504.9563
 20
24998.2903
 40
71
  0
CIRCLE
  8
4-2
 62
     7
  6
CONTINUOUS
 10
18054.9363
 20
33163.2903
 40
7.1
  0
CIRCLE
  8
4-2
 62
     7
  6
CONTINUOUS
 10
18054.9363
 20
33163.2903
 40
21.3
  0
CIRCLE
  8
4-2
 62
     7
  6
CONTINUOUS
 10
18054.9363
 20
33163.2903
 40
35.5
  0
ARC
  8
4-2
 62
     7
  6
CONTINUOUS
 10
17966.2063
 20
31690.0403
 40
88.75
 50
90
 51
270
  0
ARC
  8
4-2
 62
     7
  6
CONTINUOUS
 10
17966.2063
 20
31867.5403
 40
88.75
 50
90
 51
270
  0
CIRCLE
  8
4-2
 62
     7
  6
CONTINUOUS
 10
18764.9563
 20
24998.2903
 40
71
  0
CIRCLE
  8
4-2
 62
     7
  6
CONTINUOUS
 10
20184.9563
 20
24998.2903
 40
71
  0
CIRCLE
  8
4-2
 62
     7
  6
CONTINUOUS
 10
21604.9563
 20
24998.2903
 40
71
  0
CIRCLE
  8
4-2
 62
     7
  6
CONTINUOUS
 10
25864.9563
 20
24998.2903
 40
71
  0
CIRCLE
  8
4-2
 62
     7
  6
CONTINUOUS
 10
34384.9563
 20
24998.2903
 40
71
  0
CIRCLE
  8
4-2
 62
     7
  6
CONTINUOUS
 10
32964.9563
 20
24998.2903
 40
71
  0
CIRCLE
  8
4-2
 62
     7
  6
CONTINUOUS
 10
31544.9563
 20
24998.2903
 40
71
  0
CIRCLE
  8
4-2
 62
     7
  6
CONTINUOUS
 10
30124.9563
 20
24998.2903
 40
71
  0
CIRCLE
  8
4-2
 62
     7
  6
CONTINUOUS
 10
27284.9563
 20
24998.2903
 40
71
  0
CIRCLE
  8
4-2
 62
     7
  6
CONTINUOUS
 10
28704.9563
 20
24998.2903
 40
71
  0
CIRCLE
  8
4-2
 62
     7
  6
CONTINUOUS
 10
51424.9563
 20
24998.2903
 40
71
  0
CIRCLE
  8
4-2
 62
     7
  6
CONTINUOUS
 10
50004.9563
 20
24998.2903
 40
71
  0
CIRCLE
  8
4-2
 62
     7
  6
CONTINUOUS
 10
52844.9563
 20
24998.2903
 40
71
  0
CIRCLE
  8
4-2
 62
     7
  6
CONTINUOUS
 10
45744.9563
 20
24998.2903
 40
71
  0
CIRCLE
  8
4-2
 62
     7
  6
CONTINUOUS
 10
44324.9563
 20
24998.2903
 40
71
  0
CIRCLE
  8
4-2
 62
     7
  6
CONTINUOUS
 10
42904.9563
 20
24998.2903
 40
71
  0
CIRCLE
  8
4-2
 62
     7
  6
CONTINUOUS
 10
38644.9563
 20
24998.2903
 40
71
  0
CIRCLE
  8
4-2
 62
     7
  6
CONTINUOUS
 10
40064.9563
 20
24998.2903
 40
71
  0
CIRCLE
  8
4-2
 62
     7
  6
CONTINUOUS
 10
64204.9563
 20
24998.2903
 40
71
  0
CIRCLE
  8
4-2
 62
     7
  6
CONTINUOUS
 10
62784.9563
 20
24998.2903
 40
71
  0
TEXT
  8
4-2
 62
     7
  7
STANDARD
 10
31447.7613
 20
44532.5489
 40
250
 41
1
 50
0
  1
電動ばね操作
  0
TEXT
  8
4-2
 62
     7
  7
STANDARD
 10
31584.9563
 20
49031.4946
 40
250
 41
0.5
 50
0
  1
VCT
  0
TEXT
  8
4-2
 62
     7
  7
STANDARD
 10
61609.6571
 20
27655.728
 40
250
 41
1
 50
0
  1
（一括）
  0
TEXT
  8
4-2
 62
     7
  7
STANDARD
 10
48845.7921
 20
27655.728
 40
250
 41
1
 50
0
  1
（一括）
  0
TEXT
  8
4-2
 62
     7
  7
STANDARD
 10
37481.5169
 20
27655.728
 40
250
 41
1
 50
0
  1
（一括）
  0
TEXT
  8
4-2
 62
     7
  7
STANDARD
 10
24661.6453
 20
27655.728
 40
250
 41
1
 50
0
  1
（一括）
  0
TEXT
  8
4-2
 62
     7
  7
STANDARD
 10
13323.7534
 20
27655.728
 40
250
 41
1
 50
0
  1
（一括）
  0
TEXT
  8
4-2
 62
     7
  7
STANDARD
 10
54747.9208
 20
31828.8475
 40
250
 41
0.5
 50
0
  1
MDA
  0
TEXT
  8
4-2
 62
     7
  7
STANDARD
 10
43388.7024
 20
31829.8291
 40
250
 41
0.5
 50
0
  1
MDA
  0
TEXT
  8
4-2
 62
     7
  7
STANDARD
 10
33440.3582
 20
31840.2853
 40
250
 41
0.5
 50
0
  1
MDA
  0
TEXT
  8
4-2
 62
     7
  7
STANDARD
 10
20658.1467
 20
31835.3018
 40
250
 41
0.5
 50
0
  1
MDA
  0
TEXT
  8
4-2
 62
     7
  7
STANDARD
 10
76500.3373
 20
37862.207
 40
320
 41
1
 50
0
  1
計量
  0
TEXT
  8
4-2
 62
     7
  7
STANDARD
 10
76500.3373
 20
38699.1825
 40
320
 41
1
 50
0
  1
計測
  0
TEXT
  8
4-2
 62
     7
  7
STANDARD
 10
76500.3373
 20
39637.7593
 40
320
 41
1
 50
0
  1
警報表示
  0
TEXT
  8
4-2
 62
     7
  7
STANDARD
 10
76500.3373
 20
40525.5355
 40
320
 41
1
 50
0
  1
状態表示
  0
TEXT
  8
4-2
 62
     7
  7
STANDARD
 10
77765.9742
 20
41413.3116
 40
320
 41
1
 50
0
  1
中央監視盤
  0
TEXT
  8
4-2
 62
     7
  7
STANDARD
 10
7709.0487
 20
24587.5272
 40
250
 41
1
 50
0
  1
接 地 端 子 盤
  0
TEXT
  8
4-2
 62
     7
  7
STANDARD
 10
63818.1044
 20
38605.1599
 40
250
 41
0.5
 50
0
  1
ｲﾝﾀｰﾛｯｸ
  0
TEXT
  8
4-2
 62
     7
  7
STANDARD
 10
35147.5457
 20
50527.9651
 40
250
 41
1
 50
0
  1
DGR付
  0
TEXT
  8
4-2
 62
     7
  7
STANDARD
 10
35147.5457
 20
50277.9651
 40
250
 41
1
 50
0
  1
SOG制御装置
  0
TEXT
  8
4-2
 62
     7
  7
STANDARD
 10
58637.1344
 20
27011.5514
 40
250
 41
0.5
 50
0
  1
MC
  0
TEXT
  8
4-2
 62
     7
  7
STANDARD
 10
57198.1515
 20
27011.5514
 40
250
 41
0.5
 50
0
  1
MC
  0
TEXT
  8
4-2
 62
     7
  7
STANDARD
 10
55805.5874
 20
27011.5514
 40
250
 41
0.5
 50
0
  1
MC
  0
TEXT
  8
4-2
 62
     7
  7
STANDARD
 10
54385.293
 20
27011.5514
 40
250
 41
0.5
 50
0
  1
MC
  0
TEXT
  8
4-2
 62
     7
  7
STANDARD
 10
52837.5802
 20
33288.2903
 40
250
 41
0.5
 50
0
  1
10kA
  0
TEXT
  8
4-2
 62
     7
  7
STANDARD
 10
52837.5802
 20
33562.2137
 40
250
 41
0.5
 50
0
  1
1A
  0
TEXT
  8
4-2
 62
     7
  7
STANDARD
 10
52837.5802
 20
33871.4598
 40
250
 41
0.5
 50
0
  1
EF
  0
TEXT
  8
4-2
 62
     7
  7
STANDARD
 10
53891.103
 20
33288.2903
 40
250
 41
0.5
 50
0
  1
VS
  0
TEXT
  8
4-2
 62
     7
  7
STANDARD
 10
53904.823
 20
32081.2903
 40
250
 41
0.5
 50
0
  1
AS
  0
TEXT
  8
4-2
 62
     7
  7
STANDARD
 10
52734.9563
 20
36405.8829
 40
250
 41
0.5
 50
0
  1
OIL
  0
TEXT
  8
4-2
 62
     7
  7
STANDARD
 10
52734.9563
 20
37306.3143
 40
250
 41
1
 50
0
  1
Tr－
  0
TEXT
  8
4-2
 62
     7
  7
STANDARD
 10
52734.9563
 20
37006.3143
 40
250
 41
1
 50
0
  1
3φ kVA
  0
TEXT
  8
4-2
 62
     7
  7
STANDARD
 10
52734.9563
 20
36706.3143
 40
250
 41
0.5
 50
0
  1
6.6kV/210V
  0
TEXT
  8
4-2
 62
     7
  7
STANDARD
 10
52584.9563
 20
39045.5539
 40
250
 41
0.5
 50
0
  1
LBS
  0
TEXT
  8
4-2
 62
     7
  7
STANDARD
 10
52584.9563
 20
38745.5539
 40
250
 41
1
 50
0
  1
7.2kV  　A
  0
TEXT
  8
4-2
 62
     7
  7
STANDARD
 10
52584.9563
 20
38445.5539
 40
250
 41
0.5
 50
0
  1
PF A   A 
  0
TEXT
  8
4-2
 62
     7
  7
STANDARD
 10
42544.823
 20
32081.2903
 40
250
 41
0.5
 50
0
  1
AS
  0
TEXT
  8
4-2
 62
     7
  7
STANDARD
 10
42531.103
 20
33288.2903
 40
250
 41
0.5
 50
0
  1
VS
  0
TEXT
  8
4-2
 62
     7
  7
STANDARD
 10
41477.5802
 20
33288.2903
 40
250
 41
0.5
 50
0
  1
10kA
  0
TEXT
  8
4-2
 62
     7
  7
STANDARD
 10
41477.5802
 20
33562.2137
 40
250
 41
0.5
 50
0
  1
1A
  0
TEXT
  8
4-2
 62
     7
  7
STANDARD
 10
41477.5802
 20
33871.4598
 40
250
 41
0.5
 50
0
  1
EF
  0
TEXT
  8
4-2
 62
     7
  7
STANDARD
 10
41374.9563
 20
36405.8829
 40
250
 41
0.5
 50
0
  1
OIL
  0
TEXT
  8
4-2
 62
     7
  7
STANDARD
 10
41374.9563
 20
36706.9033
 40
250
 41
0.5
 50
0
  1
6.6kV/210-105V
  0
TEXT
  8
4-2
 62
     7
  7
STANDARD
 10
41374.9563
 20
37306.9034
 40
250
 41
1
 50
0
  1
Tr－
  0
TEXT
  8
4-2
 62
     7
  7
STANDARD
 10
41374.9563
 20
37006.9034
 40
250
 41
1
 50
0
  1
1φ kVA 
  0
TEXT
  8
4-2
 62
     7
  7
STANDARD
 10
32604.823
 20
32081.2903
 40
250
 41
0.5
 50
0
  1
AS
  0
TEXT
  8
4-2
 62
     7
  7
STANDARD
 10
32591.103
 20
33288.2903
 40
250
 41
0.5
 50
0
  1
VS
  0
TEXT
  8
4-2
 62
     7
  7
STANDARD
 10
31537.5802
 20
33288.2903
 40
250
 41
0.5
 50
0
  1
10kA
  0
TEXT
  8
4-2
 62
     7
  7
STANDARD
 10
31537.5802
 20
33562.2137
 40
250
 41
0.5
 50
0
  1
1A
  0
TEXT
  8
4-2
 62
     7
  7
STANDARD
 10
31537.5802
 20
33871.4598
 40
250
 41
0.5
 50
0
  1
EF
  0
TEXT
  8
4-2
 62
     7
  7
STANDARD
 10
31434.9563
 20
36405.8829
 40
250
 41
0.5
 50
0
  1
OIL
  0
TEXT
  8
4-2
 62
     7
  7
STANDARD
 10
31434.9563
 20
36706.9033
 40
250
 41
0.5
 50
0
  1
6.6kV/210-105V
  0
TEXT
  8
4-2
 62
     7
  7
STANDARD
 10
31434.9563
 20
37306.9034
 40
250
 41
1
 50
0
  1
Tr－
  0
TEXT
  8
4-2
 62
     7
  7
STANDARD
 10
31434.9563
 20
37006.9034
 40
250
 41
1
 50
0
  1
1φ kVA 
  0
TEXT
  8
4-2
 62
     7
  7
STANDARD
 10
31284.9563
 20
39045.5539
 40
250
 41
0.5
 50
0
  1
LBS
  0
TEXT
  8
4-2
 62
     7
  7
STANDARD
 10
31284.9563
 20
38745.5539
 40
250
 41
1
 50
0
  1
7.2kV  　A
  0
TEXT
  8
4-2
 62
     7
  7
STANDARD
 10
31284.9563
 20
38445.5539
 40
250
 41
0.5
 50
0
  1
PF A   A 
  0
TEXT
  8
4-2
 62
     7
  7
STANDARD
 10
19824.823
 20
32081.2903
 40
250
 41
0.5
 50
0
  1
AS
  0
TEXT
  8
4-2
 62
     7
  7
STANDARD
 10
18757.5802
 20
33288.2903
 40
250
 41
0.5
 50
0
  1
10kA
  0
TEXT
  8
4-2
 62
     7
  7
STANDARD
 10
19811.103
 20
33288.2903
 40
250
 41
0.5
 50
0
  1
VS
  0
TEXT
  8
4-2
 62
     7
  7
STANDARD
 10
18757.5802
 20
33562.2137
 40
250
 41
0.5
 50
0
  1
EF 1A
  0
TEXT
  8
4-2
 62
     7
  7
STANDARD
 10
18504.9563
 20
38445.5539
 40
250
 41
0.5
 50
0
  1
PF A   A 
  0
TEXT
  8
4-2
 62
     7
  7
STANDARD
 10
18504.9563
 20
38745.5539
 40
250
 41
1
 50
0
  1
7.2kV  　A
  0
TEXT
  8
4-2
 62
     7
  7
STANDARD
 10
18504.9563
 20
39045.5539
 40
250
 41
0.5
 50
0
  1
LBS
  0
TEXT
  8
4-2
 62
     7
  7
STANDARD
 10
18654.9563
 20
37006.9034
 40
250
 41
1
 50
0
  1
1φ kVA 
  0
TEXT
  8
4-2
 62
     7
  7
STANDARD
 10
18654.9563
 20
37306.9034
 40
250
 41
1
 50
0
  1
Tr－
  0
TEXT
  8
4-2
 62
     7
  7
STANDARD
 10
18654.9563
 20
36706.9033
 40
250
 41
0.5
 50
0
  1
6.6kV/210-105V
  0
TEXT
  8
4-2
 62
     7
  7
STANDARD
 10
18654.9563
 20
36405.8829
 40
250
 41
0.5
 50
0
  1
OIL
  0
TEXT
  8
4-2
 62
     7
  7
STANDARD
 10
33104.2059
 20
48160.3002
 40
250
 41
1
 50
0
  1
専用ｹｰﾌﾞﾙ
  0
TEXT
  8
4-2
 62
     7
  7
STANDARD
 10
46482.8635
 20
45590.3955
 40
320
 41
1
 50
0
  1
［注記］
  0
TEXT
  8
4-2
 62
     7
  7
STANDARD
 10
46482.8635
 20
44950.3955
 40
320
 41
1
 50
0
  1
１．主回路配線は保守を考慮し、配線の接続箇所等に不可逆性のサーモラベルを貼付する。
  0
TEXT
  8
4-2
 62
     7
  7
STANDARD
 10
46482.8635
 20
44310.3955
 40
320
 41
1
 50
0
  1
２．低圧主回路の各相間及び各相と対地間の離隔は短絡時の電磁力、地震による加振等を考慮し、母線間に
  0
TEXT
  8
4-2
 62
     7
  7
STANDARD
 10
46482.8635
 20
43990.3955
 40
320
 41
0.5
 50
0
  1
    
  0
TEXT
  8
4-2
 62
     7
  7
STANDARD
 10
46482.8635
 20
43670.3955
 40
320
 41
1
 50
0
  1
    スペーサを設ける等の配慮をする。
  0
TEXT
  8
4-2
 62
     7
  7
STANDARD
 10
46482.8635
 20
43350.3955
 40
320
 41
0.5
 50
0
  1
    
  0
TEXT
  8
4-2
 62
     7
  7
STANDARD
 10
46482.8635
 20
43030.3955
 40
320
 41
1
 50
0
  1
３．配電盤内に外部配線接続用の端子台を設ける。端子台の位置は配線を無理なく接続できる位置とし、
  0
TEXT
  8
4-2
 62
     7
  7
STANDARD
 10
46482.8635
 20
42710.3955
 40
320
 41
0.5
 50
0
  1
    
  0
TEXT
  8
4-2
 62
     7
  7
STANDARD
 10
46482.8635
 20
42390.3955
 40
320
 41
1
 50
0
  1
    また、端子に不要な応力を掛けないようにする。 
  0
TEXT
  8
4-2
 62
     7
  7
STANDARD
 10
67999.6649
 20
33761.5251
 40
250
 41
1
 50
0
  1
1φ2W
  0
TEXT
  8
4-2
 62
     7
  7
STANDARD
 10
69745.9872
 20
33761.5251
 40
250
 41
1
 50
0
  1
3φ3W
  0
TEXT
  8
4-2
 62
     7
  7
STANDARD
 10
66816.4932
 20
39551.4186
 40
320
 41
1
 50
0
  1
自家発電設備
  0
TEXT
  8
4-2
 62
     7
  7
STANDARD
 10
69060.2592
 20
35570.9447
 40
250
 41
0.5
 50
0
  1
MCCB
  0
TEXT
  8
4-2
 62
     7
  7
STANDARD
 10
68181.4622
 20
35573.2026
 40
250
 41
0.5
 50
0
  1
MCCB
  0
TEXT
  8
4-2
 62
     7
  7
STANDARD
 10
70417.3303
 20
38150.8771
 40
320
 41
0.5
 50
0
  1
ENG
  0
TEXT
  8
4-2
 62
     7
  7
STANDARD
 10
68569.2192
 20
38100.9587
 40
320
 41
0.5
 50
0
  1
GS
  0
TEXT
  8
4-2
 62
     7
  7
STANDARD
 10
70839.5929
 20
34410.6042
 40
250
 41
0.5
 50
0
  1
27R
  0
TEXT
  8
4-2
 62
     7
  7
STANDARD
 10
61942.945
 20
52575.0519
 40
320
 41
1
 50
0
  1
電力ヒューズ
  0
TEXT
  8
4-2
 62
     7
  7
STANDARD
 10
60797.49
 20
52575.0519
 40
320
 41
0.5
 50
0
  1
PF
  0
TEXT
  8
4-2
 62
     7
  7
STANDARD
 10
61942.945
 20
53451.0952
 40
320
 41
1
 50
0
  1
高圧カットアウト
  0
TEXT
  8
4-2
 62
     7
  7
STANDARD
 10
60797.49
 20
53451.0952
 40
320
 41
0.5
 50
0
  1
PC
  0
TEXT
  8
4-2
 62
     7
  7
STANDARD
 10
61942.945
 20
50822.9653
 40
320
 41
1
 50
0
  1
直列リアクトル
  0
TEXT
  8
4-2
 62
     7
  7
STANDARD
 10
60797.49
 20
50822.9653
 40
320
 41
0.5
 50
0
  1
SR
  0
TEXT
  8
4-2
 62
     7
  7
STANDARD
 10
61942.945
 20
51699.0086
 40
320
 41
1
 50
0
  1
高圧進相コンデンサ
  0
TEXT
  8
4-2
 62
     7
  7
STANDARD
 10
60797.49
 20
51699.0086
 40
320
 41
0.5
 50
0
  1
SC
  0
TEXT
  8
4-2
 62
     7
  7
STANDARD
 10
60797.49
 20
49070.8788
 40
320
 41
0.5
 50
0
  1
Tr
  0
TEXT
  8
4-2
 62
     7
  7
STANDARD
 10
61942.945
 20
49070.8788
 40
320
 41
1
 50
0
  1
変圧器
  0
TEXT
  8
4-2
 62
     7
  7
STANDARD
 10
60797.49
 20
49946.9221
 40
320
 41
0.5
 50
0
  1
TD
  0
TEXT
  8
4-2
 62
     7
  7
STANDARD
 10
61942.945
 20
49946.9221
 40
320
 41
1
 50
0
  1
信号変換器
  0
TEXT
  8
4-2
 62
     7
  7
STANDARD
 10
61942.945
 20
46442.7489
 40
320
 41
1
 50
0
  1
電圧計切替スイッチ
  0
TEXT
  8
4-2
 62
     7
  7
STANDARD
 10
60797.49
 20
46442.7489
 40
320
 41
0.5
 50
0
  1
VS
  0
TEXT
  8
4-2
 62
     7
  7
STANDARD
 10
61942.945
 20
47318.7922
 40
320
 41
1
 50
0
  1
電圧計
  0
TEXT
  8
4-2
 62
     7
  7
STANDARD
 10
60797.49
 20
47318.7922
 40
320
 41
0.5
 50
0
  1
V
  0
TEXT
  8
4-2
 62
     7
  7
STANDARD
 10
60797.49
 20
48194.8355
 40
320
 41
0.5
 50
0
  1
UGS
  0
TEXT
  8
4-2
 62
     7
  7
STANDARD
 10
61942.945
 20
48194.8355
 40
320
 41
1
 50
0
  1
高圧引込用負荷開閉器（地中・ガス）
  0
TEXT
  8
4-2
 62
     7
  7
STANDARD
 10
69133.7256
 20
55203.1818
 40
320
 41
1
 50
0
  1
無効電力計
  0
TEXT
  8
4-2
 62
     7
  7
STANDARD
 10
67988.2707
 20
55203.1818
 40
320
 41
0.5
 50
0
  1
Var
  0
TEXT
  8
4-2
 62
     7
  7
STANDARD
 10
69133.7256
 20
56079.2251
 40
320
 41
1
 50
0
  1
試験用電圧端子
  0
TEXT
  8
4-2
 62
     7
  7
STANDARD
 10
67988.2707
 20
56079.2251
 40
320
 41
0.5
 50
0
  1
VTT
  0
TEXT
  8
4-2
 62
     7
  7
STANDARD
 10
69133.7256
 20
48194.8355
 40
320
 41
1
 50
0
  1
コンデンサ形零相基準入力装置
  0
TEXT
  8
4-2
 62
     7
  7
STANDARD
 10
67988.2707
 20
48194.8355
 40
320
 41
0.5
 50
0
  1
ZPD
  0
TEXT
  8
4-2
 62
     7
  7
STANDARD
 10
69133.7256
 20
49070.8788
 40
320
 41
1
 50
0
  1
零相変流器
  0
TEXT
  8
4-2
 62
     7
  7
STANDARD
 10
67988.2707
 20
49070.8788
 40
320
 41
0.5
 50
0
  1
ZCT
  0
TEXT
  8
4-2
 62
     7
  7
STANDARD
 10
69133.7257
 20
51699.0087
 40
320
 41
1
 50
0
  1
計器用変圧器
  0
TEXT
  8
4-2
 62
     7
  7
STANDARD
 10
67988.2707
 20
51699.0086
 40
320
 41
0.5
 50
0
  1
VT
  0
TEXT
  8
4-2
 62
     7
  7
STANDARD
 10
69133.7257
 20
52575.0519
 40
320
 41
1
 50
0
  1
計器用変圧変流器
  0
TEXT
  8
4-2
 62
     7
  7
STANDARD
 10
67988.2707
 20
52575.0519
 40
320
 41
0.5
 50
0
  1
VCT
  0
TEXT
  8
4-2
 62
     7
  7
STANDARD
 10
69133.7257
 20
49946.9221
 40
320
 41
1
 50
0
  1
電力量計
  0
TEXT
  8
4-2
 62
     7
  7
STANDARD
 10
67988.2707
 20
49946.9221
 40
320
 41
0.5
 50
0
  1
Wh
  0
TEXT
  8
4-2
 62
     7
  7
STANDARD
 10
69133.7257
 20
50822.9653
 40
320
 41
1
 50
0
  1
電力計
  0
TEXT
  8
4-2
 62
     7
  7
STANDARD
 10
67988.2707
 20
50822.9653
 40
320
 41
0.5
 50
0
  1
W
  0
TEXT
  8
4-2
 62
     7
  7
STANDARD
 10
69133.7256
 20
53451.0952
 40
320
 41
1
 50
0
  1
真空接触器
  0
TEXT
  8
4-2
 62
     7
  7
STANDARD
 10
67988.2707
 20
53451.0952
 40
320
 41
0.5
 50
0
  1
VCS
  0
TEXT
  8
4-2
 62
     7
  7
STANDARD
 10
69133.7256
 20
54327.1385
 40
320
 41
1
 50
0
  1
真空遮断器
  0
TEXT
  8
4-2
 62
     7
  7
STANDARD
 10
67988.2707
 20
54327.1385
 40
320
 41
0.5
 50
0
  1
VCB
  0
TEXT
  8
4-2
 62
     7
  7
STANDARD
 10
75598.9276
 20
49987.1532
 40
250
 41
1
 50
0
  1
＞
  0
TEXT
  8
4-2
 62
     7
  7
STANDARD
 10
75128.9276
 20
49987.1532
 40
250
 41
0.5
 50
0
  1
Id/I
  0
TEXT
  8
4-2
 62
     7
  7
STANDARD
 10
76324.5063
 20
49946.9221
 40
320
 41
1
 50
0
  1
比率差動継電器
  0
TEXT
  8
4-2
 62
     7
  7
STANDARD
 10
79203.2443
 20
49946.9221
 40
320
 41
0.5
 50
0
  1
87 (PDR)
  0
TEXT
  8
4-2
 62
     7
  7
STANDARD
 10
79203.2443
 20
50822.9653
 40
320
 41
0.5
 50
0
  1
67S(DSR)
  0
TEXT
  8
4-2
 62
     7
  7
STANDARD
 10
76324.5063
 20
50822.9653
 40
320
 41
1
 50
0
  1
短絡方向継電器
  0
TEXT
  8
4-2
 62
     7
  7
STANDARD
 10
75480.883
 20
50907.9653
 40
250
 41
1
 50
0
  1
＞
  0
TEXT
  8
4-2
 62
     7
  7
STANDARD
 10
75360.883
 20
50907.9653
 40
250
 41
0.5
 50
0
  1
I
  0
TEXT
  8
4-2
 62
     7
  7
STANDARD
 10
79203.2443
 20
52575.0519
 40
320
 41
0.5
 50
0
  1
59 (OVR)
  0
TEXT
  8
4-2
 62
     7
  7
STANDARD
 10
76324.5063
 20
52575.0519
 40
320
 41
1
 50
0
  1
過電圧継電器
  0
TEXT
  8
4-2
 62
     7
  7
STANDARD
 10
75481.2266
 20
52610.0519
 40
250
 41
1
 50
0
  1
＞
  0
TEXT
  8
4-2
 62
     7
  7
STANDARD
 10
75361.2266
 20
52610.0519
 40
250
 41
0.5
 50
0
  1
U
  0
TEXT
  8
4-2
 62
     7
  7
STANDARD
 10
79203.2443
 20
51699.0086
 40
320
 41
0.5
 50
0
  1
67G(DGR)
  0
TEXT
  8
4-2
 62
     7
  7
STANDARD
 10
76324.5063
 20
51699.0086
 40
320
 41
1
 50
0
  1
地絡方向継電器
  0
TEXT
  8
4-2
 62
     7
  7
STANDARD
 10
75585.1833
 20
51784.0086
 40
250
 41
1
 50
0
  1
＞
  0
TEXT
  8
4-2
 62
     7
  7
STANDARD
 10
75185.1833
 20
51784.0086
 40
250
 41
0.5
 50
0
  1
I
  0
TEXT
  8
4-2
 62
     7
  7
STANDARD
 10
79203.2443
 20
55203.1818
 40
320
 41
0.5
 50
0
  1
27 (UVR)
  0
TEXT
  8
4-2
 62
     7
  7
STANDARD
 10
76324.5063
 20
55203.1818
 40
320
 41
1
 50
0
  1
不足電圧継電器
  0
TEXT
  8
4-2
 62
     7
  7
STANDARD
 10
75483.9755
 20
55238.1818
 40
250
 41
1
 50
0
  1
＜
  0
TEXT
  8
4-2
 62
     7
  7
STANDARD
 10
75363.9755
 20
55238.1818
 40
250
 41
0.5
 50
0
  1
U
  0
TEXT
  8
4-2
 62
     7
  7
STANDARD
 10
75391.5595
 20
56116.2329
 40
250
 41
0.5
 50
0
  1
EL
  0
TEXT
  8
4-2
 62
     7
  7
STANDARD
 10
76324.5064
 20
56079.2251
 40
320
 41
1
 50
0
  1
漏電継電器
  0
TEXT
  8
4-2
 62
     7
  7
STANDARD
 10
79203.2444
 20
56079.2251
 40
320
 41
0.5
 50
0
  1
22 (ELR)
  0
TEXT
  8
4-2
 62
     7
  7
STANDARD
 10
75315.1833
 20
54362.1385
 40
250
 41
0.5
 50
0
  1
I
  0
TEXT
  8
4-2
 62
     7
  7
STANDARD
 10
75435.1833
 20
54362.1385
 40
250
 41
1
 50
0
  1
＞
  0
TEXT
  8
4-2
 62
     7
  7
STANDARD
 10
75185.1833
 20
53424.5189
 40
250
 41
0.5
 50
0
  1
I
  0
TEXT
  8
4-2
 62
     7
  7
STANDARD
 10
75585.1833
 20
53424.5189
 40
250
 41
1
 50
0
  1
＞
  0
TEXT
  8
4-2
 62
     7
  7
STANDARD
 10
76324.5063
 20
54327.1385
 40
320
 41
1
 50
0
  1
過電流継電器
  0
TEXT
  8
4-2
 62
     7
  7
STANDARD
 10
76324.5063
 20
53451.0952
 40
320
 41
1
 50
0
  1
地絡過電流継電器
  0
TEXT
  8
4-2
 62
     7
  7
STANDARD
 10
79203.2443
 20
54327.1385
 40
320
 41
0.5
 50
0
  1
51 (OCR)
  0
TEXT
  8
4-2
 62
     7
  7
STANDARD
 10
79203.2443
 20
53451.0952
 40
320
 41
0.5
 50
0
  1
51G(OCGR)
  0
TEXT
  8
4-2
 62
     7
  7
STANDARD
 10
61942.945
 20
54327.1385
 40
320
 41
1
 50
0
  1
高圧引込用負荷開閉器（ガス開閉器）
  0
TEXT
  8
4-2
 62
     7
  7
STANDARD
 10
38708.9255
 20
44807.2542
 40
250
 41
0.5
 50
0
  1
TD
  0
TEXT
  8
4-2
 62
     7
  7
STANDARD
 10
39193.4359
 20
42397.452
 40
250
 41
0.5
 50
0
  1
TD
  0
TEXT
  8
4-2
 62
     7
  7
STANDARD
 10
38619.6735
 20
42410.2023
 40
250
 41
0.5
 50
0
  1
TD
  0
TEXT
  8
4-2
 62
     7
  7
STANDARD
 10
38109.6625
 20
42397.452
 40
250
 41
0.5
 50
0
  1
TD
  0
TEXT
  8
4-2
 62
     7
  7
STANDARD
 10
37586.9012
 20
42410.2023
 40
250
 41
0.5
 50
0
  1
TD
  0
TEXT
  8
4-2
 62
     7
  7
STANDARD
 10
60797.49
 20
54327.1385
 40
320
 41
0.5
 50
0
  1
PGS
  0
TEXT
  8
4-2
 62
     7
  7
STANDARD
 10
61942.945
 20
55203.1818
 40
320
 41
1
 50
0
  1
高圧引込用負荷開閉器（気中開閉器）
  0
TEXT
  8
4-2
 62
     7
  7
STANDARD
 10
60797.49
 20
55203.1818
 40
320
 41
0.5
 50
0
  1
PAS
  0
TEXT
  8
4-2
 62
     7
  7
STANDARD
 10
47561.3838
 20
49946.9221
 40
320
 41
1
 50
0
  1
断路器
  0
TEXT
  8
4-2
 62
     7
  7
STANDARD
 10
46415.9288
 20
49946.9221
 40
320
 41
0.5
 50
0
  1
DS
  0
TEXT
  8
4-2
 62
     7
  7
STANDARD
 10
54752.1644
 20
46442.7489
 40
320
 41
1
 50
0
  1
最大需要電力計
  0
TEXT
  8
4-2
 62
     7
  7
STANDARD
 10
53606.7094
 20
46442.7489
 40
320
 41
0.5
 50
0
  1
MDW
  0
TEXT
  8
4-2
 62
     7
  7
STANDARD
 10
54752.1644
 20
47318.7922
 40
320
 41
1
 50
0
  1
最大需要電流計（警報接点付）
  0
TEXT
  8
4-2
 62
     7
  7
STANDARD
 10
53606.7094
 20
47318.7922
 40
320
 41
0.5
 50
0
  1
MDA
  0
TEXT
  8
4-2
 62
     7
  7
STANDARD
 10
54752.1644
 20
49070.8788
 40
320
 41
1
 50
0
  1
電磁接触器
  0
TEXT
  8
4-2
 62
     7
  7
STANDARD
 10
53606.7094
 20
49070.8788
 40
320
 41
0.5
 50
0
  1
MC
  0
TEXT
  8
4-2
 62
     7
  7
STANDARD
 10
53606.7094
 20
48194.8355
 40
320
 41
0.5
 50
0
  1
MCCB
  0
TEXT
  8
4-2
 62
     7
  7
STANDARD
 10
54752.1644
 20
48194.8355
 40
320
 41
1
 50
0
  1
配線用遮断器
  0
TEXT
  8
4-2
 62
     7
  7
STANDARD
 10
54752.1644
 20
49946.9221
 40
320
 41
1
 50
0
  1
高圧負荷開閉器
  0
TEXT
  8
4-2
 62
     7
  7
STANDARD
 10
53606.7094
 20
49946.9221
 40
320
 41
0.5
 50
0
  1
LBS
  0
TEXT
  8
4-2
 62
     7
  7
STANDARD
 10
53606.7094
 20
51699.0086
 40
320
 41
0.5
 50
0
  1
GCB
  0
TEXT
  8
4-2
 62
     7
  7
STANDARD
 10
54752.1644
 20
51699.0086
 40
320
 41
1
 50
0
  1
ガス遮断器
  0
TEXT
  8
4-2
 62
     7
  7
STANDARD
 10
53606.7094
 20
50822.9653
 40
320
 41
0.5
 50
0
  1
LA
  0
TEXT
  8
4-2
 62
     7
  7
STANDARD
 10
54752.1644
 20
50822.9653
 40
320
 41
1
 50
0
  1
避雷器
  0
TEXT
  8
4-2
 62
     7
  7
STANDARD
 10
53606.7094
 20
52575.0519
 40
320
 41
0.5
 50
0
  1
GS
  0
TEXT
  8
4-2
 62
     7
  7
STANDARD
 10
54752.1644
 20
52575.0519
 40
320
 41
1
 50
0
  1
発電機
  0
TEXT
  8
4-2
 62
     7
  7
STANDARD
 10
54752.1644
 20
53451.0952
 40
320
 41
1
 50
0
  1
原動機
  0
TEXT
  8
4-2
 62
     7
  7
STANDARD
 10
53606.7094
 20
53451.0952
 40
320
 41
0.5
 50
0
  1
ENG
  0
TEXT
  8
4-2
 62
     7
  7
STANDARD
 10
54752.1644
 20
55203.1818
 40
320
 41
1
 50
0
  1
プラグヒューズ
  0
TEXT
  8
4-2
 62
     7
  7
STANDARD
 10
53606.7094
 20
55203.1818
 40
320
 41
0.5
 50
0
  1
EF
  0
TEXT
  8
4-2
 62
     7
  7
STANDARD
 10
54752.1644
 20
54327.1385
 40
320
 41
1
 50
0
  1
避雷接地
  0
TEXT
  8
4-2
 62
     7
  7
STANDARD
 10
53606.7094
 20
54327.1385
 40
320
 41
0.5
 50
0
  1
ELA
  0
TEXT
  8
4-2
 62
     7
  7
STANDARD
 10
53606.7094
 20
56079.2251
 40
320
 41
0.5
 50
0
  1
ED
  0
TEXT
  8
4-2
 62
     7
  7
STANDARD
 10
54752.1644
 20
56079.2251
 40
320
 41
1
 50
0
  1
D種接地
  0
TEXT
  8
4-2
 62
     7
  7
STANDARD
 10
46415.9288
 20
47318.7922
 40
320
 41
0.5
 50
0
  1
EB
  0
TEXT
  8
4-2
 62
     7
  7
STANDARD
 10
46415.9288
 20
48194.8355
 40
320
 41
0.5
 50
0
  1
EA
  0
TEXT
  8
4-2
 62
     7
  7
STANDARD
 10
47561.3837
 20
48194.8355
 40
320
 41
1
 50
0
  1
A種接地
  0
TEXT
  8
4-2
 62
     7
  7
STANDARD
 10
47561.3837
 20
47318.7922
 40
320
 41
1
 50
0
  1
B種接地
  0
TEXT
  8
4-2
 62
     7
  7
STANDARD
 10
46415.9288
 20
46442.7489
 40
320
 41
0.5
 50
0
  1
EC
  0
TEXT
  8
4-2
 62
     7
  7
STANDARD
 10
47561.3837
 20
46442.7489
 40
320
 41
1
 50
0
  1
C種接地
  0
TEXT
  8
4-2
 62
     7
  7
STANDARD
 10
60797.49
 20
56079.2251
 40
320
 41
0.5
 50
0
  1
PF
  0
TEXT
  8
4-2
 62
     7
  7
STANDARD
 10
47561.3838
 20
51699.0086
 40
320
 41
1
 50
0
  1
低圧進相コンデンサ
  0
TEXT
  8
4-2
 62
     7
  7
STANDARD
 10
46415.9288
 20
51699.0086
 40
320
 41
0.5
 50
0
  1
C
  0
TEXT
  8
4-2
 62
     7
  7
STANDARD
 10
46415.9288
 20
50822.9653
 40
320
 41
0.5
 50
0
  1
CH
  0
TEXT
  8
4-2
 62
     7
  7
STANDARD
 10
46415.9288
 20
49070.8788
 40
320
 41
0.5
 50
0
  1
DTMC
  0
TEXT
  8
4-2
 62
     7
  7
STANDARD
 10
47561.3838
 20
50822.9653
 40
320
 41
1
 50
0
  1
ケーブルヘッド
  0
TEXT
  8
4-2
 62
     7
  7
STANDARD
 10
47561.3838
 20
49070.8788
 40
320
 41
1
 50
0
  1
双極切替器
  0
TEXT
  8
4-2
 62
     7
  7
STANDARD
 10
61942.945
 20
56079.2251
 40
320
 41
1
 50
0
  1
力率計
  0
TEXT
  8
4-2
 62
     7
  7
STANDARD
 10
35148.6568
 20
42334.496
 40
250
 41
0.5
 50
0
  1
PF
  0
TEXT
  8
4-2
 62
     7
  7
STANDARD
 10
5131.299
 20
25616.3841
 40
250
 41
0.5
 50
0
  1
ELA
  0
TEXT
  8
4-2
 62
     7
  7
STANDARD
 10
10398.2571
 20
25575.5213
 40
200
 41
0.5
 50
0
  1
C
  0
TEXT
  8
4-2
 62
     7
  7
STANDARD
 10
9835.9013
 20
25566.3023
 40
200
 41
0.5
 50
0
  1
P
  0
TEXT
  8
4-2
 62
     7
  7
STANDARD
 10
10243.299
 20
25616.3841
 40
250
 41
0.5
 50
0
  1
E
  0
TEXT
  8
4-2
 62
     7
  7
STANDARD
 10
9675.299
 20
25616.3841
 40
250
 41
0.5
 50
0
  1
E
  0
TEXT
  8
4-2
 62
     7
  7
STANDARD
 10
9107.299
 20
25616.3841
 40
250
 41
0.5
 50
0
  1
EC
  0
TEXT
  8
4-2
 62
     7
  7
STANDARD
 10
75075.8083
 20
56955.2684
 40
320
 41
1
 50
0
  1
記 号
  0
TEXT
  8
4-2
 62
     7
  7
STANDARD
 10
78271.1986
 20
56955.2684
 40
320
 41
1
 50
0
  1
名　　　称
  0
TEXT
  8
4-2
 62
     7
  7
STANDARD
 10
67885.0276
 20
56955.2684
 40
320
 41
1
 50
0
  1
記 号
  0
TEXT
  8
4-2
 62
     7
  7
STANDARD
 10
71080.418
 20
56955.2684
 40
320
 41
1
 50
0
  1
名　　　称
  0
TEXT
  8
4-2
 62
     7
  7
STANDARD
 10
60694.247
 20
56955.2684
 40
320
 41
1
 50
0
  1
記 号
  0
TEXT
  8
4-2
 62
     7
  7
STANDARD
 10
63889.6373
 20
56955.2684
 40
320
 41
1
 50
0
  1
名　　　称
  0
TEXT
  8
4-2
 62
     7
  7
STANDARD
 10
53503.4664
 20
56955.2684
 40
320
 41
1
 50
0
  1
記 号
  0
TEXT
  8
4-2
 62
     7
  7
STANDARD
 10
56698.8567
 20
56955.2684
 40
320
 41
1
 50
0
  1
名　　　称
  0
TEXT
  8
4-2
 62
     7
  7
STANDARD
 10
47561.3837
 20
52575.0519
 40
320
 41
1
 50
0
  1
試験用電流端子
  0
TEXT
  8
4-2
 62
     7
  7
STANDARD
 10
47561.3837
 20
53451.0952
 40
320
 41
1
 50
0
  1
自動力率調整リレー
  0
TEXT
  8
4-2
 62
     7
  7
STANDARD
 10
47561.3837
 20
54327.1385
 40
320
 41
1
 50
0
  1
自動電圧調整器
  0
TEXT
  8
4-2
 62
     7
  7
STANDARD
 10
47561.3837
 20
55203.1818
 40
320
 41
1
 50
0
  1
電流計切替スイッチ
  0
TEXT
  8
4-2
 62
     7
  7
STANDARD
 10
47561.3837
 20
56079.2251
 40
320
 41
1
 50
0
  1
電流計
  0
TEXT
  8
4-2
 62
     7
  7
STANDARD
 10
49508.0761
 20
56955.2684
 40
320
 41
1
 50
0
  1
名　　　称
  0
TEXT
  8
4-2
 62
     7
  7
STANDARD
 10
46312.6858
 20
56955.2684
 40
320
 41
1
 50
0
  1
記 号
  0
TEXT
  8
4-2
 62
     7
  7
STANDARD
 10
46415.9288
 20
52575.0519
 40
320
 41
0.5
 50
0
  1
CTT
  0
TEXT
  8
4-2
 62
     7
  7
STANDARD
 10
46415.9288
 20
53451.0952
 40
320
 41
0.5
 50
0
  1
AQR
  0
TEXT
  8
4-2
 62
     7
  7
STANDARD
 10
46415.9288
 20
54327.1385
 40
320
 41
0.5
 50
0
  1
AVR
  0
TEXT
  8
4-2
 62
     7
  7
STANDARD
 10
46415.9288
 20
55203.1818
 40
320
 41
0.5
 50
0
  1
AS
  0
TEXT
  8
4-2
 62
     7
  7
STANDARD
 10
46415.9288
 20
56079.2251
 40
320
 41
0.5
 50
0
  1
A
  0
TEXT
  8
4-2
 62
     7
  7
STANDARD
 10
41634.9563
 20
24786.2561
 40
250
 41
0.5
 50
0
  1
C
  0
TEXT
  8
4-2
 62
     7
  7
STANDARD
 10
41634.9563
 20
24536.2561
 40
250
 41
0.5
 50
0
  1
kVar 
  0
TEXT
  8
4-2
 62
     7
  7
STANDARD
 10
43945.0613
 20
30069.7759
 40
250
 41
0.5
 50
0
  1
DTMC
  0
TEXT
  8
4-2
 62
     7
  7
STANDARD
 10
43945.0613
 20
29819.7759
 40
250
 41
0.5
 50
0
  1
   A
  0
TEXT
  8
4-2
 62
     7
  7
STANDARD
 10
66683.8609
 20
30069.7753
 40
250
 41
0.5
 50
0
  1
DTMC
  0
TEXT
  8
4-2
 62
     7
  7
STANDARD
 10
66683.8609
 20
29819.7753
 40
250
 41
0.5
 50
0
  1
   A
  0
TEXT
  8
4-2
 62
     7
  7
STANDARD
 10
58828.1189
 20
25241.9103
 40
250
 41
0.5
 50
0
  1
6%
  0
TEXT
  8
4-2
 62
     7
  7
STANDARD
 10
57408.1189
 20
25241.9103
 40
250
 41
0.5
 50
0
  1
6%
  0
TEXT
  8
4-2
 62
     7
  7
STANDARD
 10
55988.1189
 20
25241.9103
 40
250
 41
0.5
 50
0
  1
6%
  0
TEXT
  8
4-2
 62
     7
  7
STANDARD
 10
54567.8244
 20
25241.9103
 40
250
 41
0.5
 50
0
  1
6%
  0
TEXT
  8
4-2
 62
     7
  7
STANDARD
 10
28075.935
 20
53154.4981
 40
250
 41
0.5
 50
0
  1
7.2kV 200A(  KA) 
  0
TEXT
  8
4-2
 62
     7
  7
STANDARD
 10
28075.935
 20
53454.4981
 40
250
 41
1
 50
0
  1
   (VT,LA内蔵)
  0
TEXT
  8
4-2
 62
     7
  7
STANDARD
 10
28075.935
 20
53754.4981
 40
250
 41
1
 50
0
  1
PAS(ZCT,ZPD付)
  0
TEXT
  8
4-2
 62
     7
  7
STANDARD
 10
29017.3586
 20
43529.0793
 40
250
 41
0.5
 50
0
  1
12.5KA
  0
TEXT
  8
4-2
 62
     7
  7
STANDARD
 10
29017.3586
 20
44523.0793
 40
250
 41
0.5
 50
0
  1
52R(VCB)
  0
TEXT
  8
4-2
 62
     7
  7
STANDARD
 10
29017.3586
 20
44203.5793
 40
250
 41
0.5
 50
0
  1
7.2KV
  0
TEXT
  8
4-2
 62
     7
  7
STANDARD
 10
29017.3586
 20
43848.5793
 40
250
 41
0.5
 50
0
  1
600A
  0
TEXT
  8
4-2
 62
     7
  7
STANDARD
 10
53321.6364
 20
31477.0391
 40
250
 41
0.5
 50
0
  1
55-E
  0
TEXT
  8
4-2
 62
     7
  7
STANDARD
 10
52988.6366
 20
31831.0143
 40
250
 41
0.5
 50
0
  1
AQR
  0
TEXT
  8
4-2
 62
     7
  7
STANDARD
 10
54564.6618
 20
25498.7877
 40
250
 41
0.5
 50
0
  1
kVar 
  0
TEXT
  8
4-2
 62
     7
  7
STANDARD
 10
54564.6618
 20
25798.7877
 40
250
 41
0.5
 50
0
  1
SR
  0
TEXT
  8
4-2
 62
     7
  7
STANDARD
 10
54414.6618
 20
24786.2553
 40
250
 41
0.5
 50
0
  1
C
  0
TEXT
  8
4-2
 62
     7
  7
STANDARD
 10
54414.6618
 20
24536.2553
 40
250
 41
0.5
 50
0
  1
kVar 
  0
TEXT
  8
4-2
 62
     7
  7
STANDARD
 10
29149.9688
 20
45922.4386
 40
250
 41
0.5
 50
0
  1
ｲﾝﾀｰﾛｯｸ
  0
TEXT
  8
4-2
 62
     7
  7
STANDARD
 10
13132.5385
 20
33260.5906
 40
250
 41
0.5
 50
0
  1
I
  0
TEXT
  8
4-2
 62
     7
  7
STANDARD
 10
13532.5385
 20
33260.5906
 40
250
 41
1
 50
0
  1
＞
  0
TEXT
  8
4-2
 62
     7
  7
STANDARD
 10
13352.5477
 20
32909.7844
 40
250
 41
0.5
 50
0
  1
51G
  0
TEXT
  8
4-2
 62
     7
  7
STANDARD
 10
6526.069
 20
25249.9241
 40
250
 41
1
 50
0
  1
（予備）
  0
TEXT
  8
4-2
 62
     7
  7
STANDARD
 10
4563.299
 20
25616.3841
 40
250
 41
0.5
 50
0
  1
EA
  0
TEXT
  8
4-2
 62
     7
  7
STANDARD
 10
6835.299
 20
25616.3841
 40
250
 41
0.5
 50
0
  1
EA
  0
TEXT
  8
4-2
 62
     7
  7
STANDARD
 10
7403.299
 20
25616.3841
 40
250
 41
0.5
 50
0
  1
EA
  0
TEXT
  8
4-2
 62
     7
  7
STANDARD
 10
7971.299
 20
25616.3841
 40
250
 41
0.5
 50
0
  1
EB
  0
TEXT
  8
4-2
 62
     7
  7
STANDARD
 10
8539.299
 20
25616.3841
 40
250
 41
0.5
 50
0
  1
ED
  0
TEXT
  8
4-2
 62
     7
  7
STANDARD
 10
35954.9563
 20
24536.2561
 40
250
 41
0.5
 50
0
  1
kVar 
  0
TEXT
  8
4-2
 62
     7
  7
STANDARD
 10
35954.9563
 20
24786.2561
 40
250
 41
0.5
 50
0
  1
C
  0
TEXT
  8
4-2
 62
     7
  7
STANDARD
 10
23174.9563
 20
24786.2561
 40
250
 41
0.5
 50
0
  1
C
  0
TEXT
  8
4-2
 62
     7
  7
STANDARD
 10
23174.9563
 20
24536.2561
 40
250
 41
0.5
 50
0
  1
kVar 
  0
TEXT
  8
4-2
 62
     7
  7
STANDARD
 10
55834.9563
 20
24536.2553
 40
250
 41
0.5
 50
0
  1
kVar 
  0
TEXT
  8
4-2
 62
     7
  7
STANDARD
 10
55834.9563
 20
24786.2553
 40
250
 41
0.5
 50
0
  1
C
  0
TEXT
  8
4-2
 62
     7
  7
STANDARD
 10
57254.9563
 20
24536.2553
 40
250
 41
0.5
 50
0
  1
kVar 
  0
TEXT
  8
4-2
 62
     7
  7
STANDARD
 10
57254.9563
 20
24786.2553
 40
250
 41
0.5
 50
0
  1
C
  0
TEXT
  8
4-2
 62
     7
  7
STANDARD
 10
58674.9563
 20
24536.2553
 40
250
 41
0.5
 50
0
  1
kVar 
  0
TEXT
  8
4-2
 62
     7
  7
STANDARD
 10
58674.9563
 20
24786.2553
 40
250
 41
0.5
 50
0
  1
C
  0
TEXT
  8
4-2
 62
     7
  7
STANDARD
 10
55984.9563
 20
25798.7877
 40
250
 41
0.5
 50
0
  1
SR
  0
TEXT
  8
4-2
 62
     7
  7
STANDARD
 10
55984.9563
 20
25498.7877
 40
250
 41
0.5
 50
0
  1
kVar 
  0
TEXT
  8
4-2
 62
     7
  7
STANDARD
 10
57404.9563
 20
25798.7877
 40
250
 41
0.5
 50
0
  1
SR
  0
TEXT
  8
4-2
 62
     7
  7
STANDARD
 10
57404.9563
 20
25498.7877
 40
250
 41
0.5
 50
0
  1
kVar 
  0
TEXT
  8
4-2
 62
     7
  7
STANDARD
 10
58824.9563
 20
25798.7877
 40
250
 41
0.5
 50
0
  1
SR
  0
TEXT
  8
4-2
 62
     7
  7
STANDARD
 10
58824.9563
 20
25498.7877
 40
250
 41
0.5
 50
0
  1
kVar 
  0
TEXT
  8
4-2
 62
     7
  7
STANDARD
 10
32554.9167
 20
42445.6098
 40
250
 41
1
 50
0
  1
51R×2
  0
TEXT
  8
4-2
 62
     7
  7
STANDARD
 10
34735.1126
 20
44576.3834
 40
250
 41
0.5
 50
0
  1
27R
  0
TEXT
  8
4-2
 62
     7
  7
STANDARD
 10
36139.1259
 20
50907.2094
 40
250
 41
0.5
 50
0
  1
67GR
  0
TEXT
  8
4-2
 62
     7
  7
STANDARD
 10
40266.5399
 20
47859.9603
 40
250
 41
1
 50
0
  1
デマンド監視制御装置
  0
TEXT
  8
4-2
 62
     7
  7
STANDARD
 10
37736.1147
 20
47859.9603
 40
250
 41
0.5
 50
0
  1
CPEV-S 0.9-4c
  0
TEXT
  8
4-2
 62
     7
  7
STANDARD
 10
40179.1947
 20
44433.5114
 40
250
 41
0.5
 50
0
  1
RPF+,RPF-
  0
TEXT
  8
4-2
 62
     7
  7
STANDARD
 10
40179.1947
 20
44881.4897
 40
250
 41
0.5
 50
0
  1
RV+,RV-
  0
TEXT
  8
4-2
 62
     7
  7
STANDARD
 10
40179.1947
 20
44142.3354
 40
250
 41
0.5
 50
0
  1
RW+,RW-
  0
TEXT
  8
4-2
 62
     7
  7
STANDARD
 10
40179.1947
 20
43860.2472
 40
250
 41
0.5
 50
0
  1
Rvar+,Rvar-
  0
TEXT
  8
4-2
 62
     7
  7
STANDARD
 10
40179.1947
 20
43579.3081
 40
250
 41
0.5
 50
0
  1
RA+,RA-
  0
TEXT
  8
4-2
 62
     7
  7
STANDARD
 10
39088.9205
 20
45008.671
 40
250
 41
0.5
 50
0
  1
V
  0
TEXT
  8
4-2
 62
     7
  7
STANDARD
 10
39137.8343
 20
42925.1691
 40
250
 41
0.5
 50
0
  1
A
  0
TEXT
  8
4-2
 62
     7
  7
STANDARD
 10
38530.1774
 20
42961.5961
 40
250
 41
0.5
 50
0
  1
var
  0
TEXT
  8
4-2
 62
     7
  7
STANDARD
 10
38099.6666
 20
42949.3297
 40
250
 41
0.5
 50
0
  1
W
  0
TEXT
  8
4-2
 62
     7
  7
STANDARD
 10
37408.2082
 20
42982.3422
 40
250
 41
1
 50
0
  1
cosφ
  0
TEXT
  8
4-2
 62
     7
  7
STANDARD
 10
40408.1653
 20
42330.6435
 40
250
 41
0.5
 50
0
  1
100/5A
  0
TEXT
  8
4-2
 62
     7
  7
STANDARD
 10
40408.1652
 20
45232.4878
 40
250
 41
1
 50
0
  1
0～9kV
  0
TEXT
  8
4-2
 62
     7
  7
STANDARD
 10
39884.9579
 20
45930.1541
 40
250
 41
0.5
 50
0
  1
VS
  0
TEXT
  8
4-2
 62
     7
  7
STANDARD
 10
39884.9579
 20
42540.6854
 40
250
 41
0.5
 50
0
  1
AS
  0
TEXT
  8
4-2
 62
     7
  7
STANDARD
 10
40669.1624
 20
45662.3703
 40
250
 41
0.5
 50
0
  1
V
  0
TEXT
  8
4-2
 62
     7
  7
STANDARD
 10
40656.6739
 20
42822.3703
 40
250
 41
0.5
 50
0
  1
A
  0
TEXT
  8
4-2
 62
     7
  7
STANDARD
 10
36694.7548
 20
42837.3436
 40
250
 41
0.5
 50
0
  1
var
  0
TEXT
  8
4-2
 62
     7
  7
STANDARD
 10
35099.1467
 20
42840.5795
 40
200
 41
1
 50
0
  1
cosφ
  0
TEXT
  8
4-2
 62
     7
  7
STANDARD
 10
36050.6807
 20
42822.3703
 40
250
 41
0.5
 50
0
  1
W
  0
TEXT
  8
4-2
 62
     7
  7
STANDARD
 10
32911.798
 20
42822.3703
 40
250
 41
1
 50
0
  1
＞
  0
TEXT
  8
4-2
 62
     7
  7
STANDARD
 10
32791.798
 20
42822.3703
 40
250
 41
0.5
 50
0
  1
I
  0
TEXT
  8
4-2
 62
     7
  7
STANDARD
 10
29762.8184
 20
42534.9603
 40
250
 41
0.5
 50
0
  1
100/5A
  0
TEXT
  8
4-2
 62
     7
  7
STANDARD
 10
29762.8184
 20
42854.4603
 40
250
 41
0.5
 50
0
  1
CTx2
  0
TEXT
  8
4-2
 62
     7
  7
STANDARD
 10
31452.4195
 20
43073.715
 40
250
 41
0.5
 50
0
  1
CTT
  0
TEXT
  8
4-2
 62
     7
  7
STANDARD
 10
34858.4163
 20
48774.6265
 40
250
 41
0.5
 50
0
  1
50000pulse/kWh
  0
TEXT
  8
4-2
 62
     7
  7
STANDARD
 10
32073.3151
 20
49463.6338
 40
250
 41
1
 50
0
  1
変成器付
  0
TEXT
  8
4-2
 62
     7
  7
STANDARD
 10
32073.3151
 20
49213.6338
 40
250
 41
1
 50
0
  1
計器用端子箱
  0
TEXT
  8
4-2
 62
     7
  7
STANDARD
 10
33776.4605
 20
49216.5622
 40
250
 41
1
 50
0
  1
電力需給複合計器
  0
TEXT
  8
4-2
 62
     7
  7
STANDARD
 10
35869.5768
 20
47688.5777
 40
250
 41
0.5
 50
0
  1
PP
  0
TEXT
  8
4-2
 62
     7
  7
STANDARD
 10
35623.2913
 20
48333.9259
 40
250
 41
1
 50
0
  1
パルス変換器
  0
TEXT
  8
4-2
 62
     7
  7
STANDARD
 10
35623.2913
 20
48083.9259
 40
250
 41
1
 50
0
  1
関西電力専用品
  0
TEXT
  8
4-2
 62
     7
  7
STANDARD
 10
32169.242
 20
52601.516
 40
320
 41
1
 50
0
  1
構内柱
  0
TEXT
  8
4-2
 62
     7
  7
STANDARD
 10
35254.8105
 20
45912.3703
 40
250
 41
0.5
 50
0
  1
VTT
  0
TEXT
  8
4-2
 62
     7
  7
STANDARD
 10
34747.9628
 20
44929.292
 40
250
 41
1
 50
0
  1
＜
  0
TEXT
  8
4-2
 62
     7
  7
STANDARD
 10
34627.9628
 20
44929.292
 40
250
 41
0.5
 50
0
  1
U
  0
TEXT
  8
4-2
 62
     7
  7
STANDARD
 10
33857.2282
 20
46084.3666
 40
250
 41
0.5
 50
0
  1
10kA
  0
TEXT
  8
4-2
 62
     7
  7
STANDARD
 10
33857.2282
 20
46336.2761
 40
250
 41
0.5
 50
0
  1
3A
  0
TEXT
  8
4-2
 62
     7
  7
STANDARD
 10
33857.2282
 20
46590.2686
 40
250
 41
1
 50
0
  1
EF-R×2
  0
TEXT
  8
4-2
 62
     7
  7
STANDARD
 10
32432.2323
 20
46078.101
 40
250
 41
0.5
 50
0
  1
6600/110V
  0
TEXT
  8
4-2
 62
     7
  7
STANDARD
 10
32432.2323
 20
46328.4189
 40
250
 41
1
 50
0
  1
VT-R×2
  0
TEXT
  8
4-2
 62
     7
  7
STANDARD
 10
31510.5115
 20
46084.4353
 40
250
 41
0.5
 50
0
  1
40kA
  0
TEXT
  8
4-2
 62
     7
  7
STANDARD
 10
31508.7093
 20
46335.2203
 40
250
 41
0.5
 50
0
  1
PF 1A
  0
TEXT
  8
4-2
 62
     7
  7
STANDARD
 10
35107.002
 20
51076.4963
 40
250
 41
0.5
 50
0
  1
I
  0
TEXT
  8
4-2
 62
     7
  7
STANDARD
 10
35507.002
 20
51076.4963
 40
250
 41
1
 50
0
  1
＞
  0
TEXT
  8
4-2
 62
     7
  7
STANDARD
 10
35841.116
 20
51059.2802
 40
250
 41
0.5
 50
0
  1
G
  0
TEXT
  8
4-2
 62
     7
  7
STANDARD
 10
29714.6971
 20
56001.5672
 40
250
 41
1
 50
0
  1
3φ3W　6,600V　60Hz
  0
TEXT
  8
4-2
 62
     7
  7
STANDARD
 10
36315.4961
 20
52505.7598
 40
250
 41
0.5
 50
0
  1
CVVS 1.25 -10C
  0
TEXT
  8
4-2
 62
     7
  7
STANDARD
 10
31166.9763
 20
47775.3703
 40
250
 41
0.5
 50
0
  1
3PST
  0
TEXT
  8
4-2
 62
     7
  7
STANDARD
 10
31166.9763
 20
48094.8703
 40
250
 41
0.5
 50
0
  1
89R(DS)
  0
TEXT
  8
4-2
 62
     7
  7
STANDARD
 10
31166.9763
 20
47455.8703
 40
250
 41
0.5
 50
0
  1
7.2KV 200A
  0
TEXT
  8
4-2
 62
     7
  7
STANDARD
 10
50478.9763
 20
31543.8803
 40
250
 41
0.5
 50
0
  1
 
  0
TEXT
  8
4-2
 62
     7
  7
STANDARD
 10
51265.3463
 20
32010.3403
 40
250
 41
0.5
 50
0
  1
CTx2
  0
TEXT
  8
4-2
 62
     7
  7
STANDARD
 10
54877.4351
 20
33038.2903
 40
250
 41
0.5
 50
0
  1
V
  0
TEXT
  8
4-2
 62
     7
  7
STANDARD
 10
54583.2455
 20
32506.2703
 40
250
 41
1
 50
0
  1
0～300V
  0
TEXT
  8
4-2
 62
     7
  7
STANDARD
 10
54583.2455
 20
31362.7579
 40
250
 41
0.5
 50
0
  1
 /5A
  0
TEXT
  8
4-2
 62
     7
  7
STANDARD
 10
48868.0861
 20
35858.8455
 40
320
 41
0.5
 50
0
  1
ZCT
  0
TEXT
  8
4-2
 62
     7
  7
STANDARD
 10
39118.9763
 20
31543.8803
 40
250
 41
0.5
 50
0
  1
 
  0
TEXT
  8
4-2
 62
     7
  7
STANDARD
 10
39905.3463
 20
32010.3403
 40
250
 41
0.5
 50
0
  1
CTx2
  0
TEXT
  8
4-2
 62
     7
  7
STANDARD
 10
41224.9563
 20
38445.5539
 40
250
 41
0.5
 50
0
  1
PF A   A 
  0
TEXT
  8
4-2
 62
     7
  7
STANDARD
 10
41224.9563
 20
38745.5539
 40
250
 41
1
 50
0
  1
7.2kV  　A
  0
TEXT
  8
4-2
 62
     7
  7
STANDARD
 10
41224.9563
 20
39045.5539
 40
250
 41
0.5
 50
0
  1
LBS
  0
TEXT
  8
4-2
 62
     7
  7
STANDARD
 10
43517.4351
 20
33038.2903
 40
250
 41
0.5
 50
0
  1
V
  0
TEXT
  8
4-2
 62
     7
  7
STANDARD
 10
43223.2455
 20
32506.2703
 40
250
 41
1
 50
0
  1
0～300V
  0
TEXT
  8
4-2
 62
     7
  7
STANDARD
 10
43223.2455
 20
31362.7579
 40
250
 41
0.5
 50
0
  1
 /5A
  0
TEXT
  8
4-2
 62
     7
  7
STANDARD
 10
37508.0861
 20
35858.8455
 40
320
 41
0.5
 50
0
  1
ZCT
  0
TEXT
  8
4-2
 62
     7
  7
STANDARD
 10
29178.9763
 20
31543.8803
 40
250
 41
0.5
 50
0
  1
 
  0
TEXT
  8
4-2
 62
     7
  7
STANDARD
 10
29965.3463
 20
32010.3403
 40
250
 41
0.5
 50
0
  1
CTx2
  0
TEXT
  8
4-2
 62
     7
  7
STANDARD
 10
33577.4351
 20
33038.2903
 40
250
 41
0.5
 50
0
  1
V
  0
TEXT
  8
4-2
 62
     7
  7
STANDARD
 10
33283.2455
 20
32506.2703
 40
250
 41
1
 50
0
  1
0～300V
  0
TEXT
  8
4-2
 62
     7
  7
STANDARD
 10
33283.2455
 20
31362.7579
 40
250
 41
0.5
 50
0
  1
 /5A
  0
TEXT
  8
4-2
 62
     7
  7
STANDARD
 10
27568.0861
 20
35858.8455
 40
320
 41
0.5
 50
0
  1
ZCT
  0
TEXT
  8
4-2
 62
     7
  7
STANDARD
 10
14788.0861
 20
35858.8455
 40
320
 41
0.5
 50
0
  1
ZCT
  0
TEXT
  8
4-2
 62
     7
  7
STANDARD
 10
20503.2455
 20
31362.7579
 40
250
 41
0.5
 50
0
  1
 /5A
  0
TEXT
  8
4-2
 62
     7
  7
STANDARD
 10
20503.2455
 20
32506.2703
 40
250
 41
1
 50
0
  1
0～300V
  0
TEXT
  8
4-2
 62
     7
  7
STANDARD
 10
20797.4351
 20
33038.2903
 40
250
 41
0.5
 50
0
  1
V
  0
TEXT
  8
4-2
 62
     7
  7
STANDARD
 10
70044.9563
 20
8756.5975
 40
320
 41
1
 50
90
  1
№
  0
TEXT
  8
4-2
 62
     7
  7
STANDARD
 10
70034.9959
 20
9806.5014
 40
320
 41
1
 50
90
  1
負荷名称
  0
TEXT
  8
4-2
 62
     7
  7
STANDARD
 10
70399.9563
 20
13822.8574
 40
320
 41
1
 50
90
  1
数字
  0
TEXT
  8
4-2
 62
     7
  7
STANDARD
 10
69689.9563
 20
13422.8574
 40
320
 41
1
 50
90
  1
　　  kVA
  0
TEXT
  8
4-2
 62
     7
  7
STANDARD
 10
69689.9563
 20
15721.2247
 40
320
 41
0.5
 50
90
  1
CVT
  0
TEXT
  8
4-2
 62
     7
  7
STANDARD
 10
70399.9563
 20
15641.2247
 40
320
 41
1
 50
90
  1
数字
  0
TEXT
  8
4-2
 62
     7
  7
STANDARD
 10
70148.5378
 20
16425.9569
 40
200
 41
1
 50
90
  1
□
  0
TEXT
  8
4-2
 62
     7
  7
STANDARD
 10
69689.9563
 20
18970.5105
 40
320
 41
1
 50
90
  1
3P○AF/○AT
  0
TEXT
  8
4-2
 62
     7
  7
STANDARD
 10
70399.9563
 20
21525.6635
 40
320
 41
1
 50
90
  1
数字
  0
TEXT
  8
4-2
 62
     7
  7
STANDARD
 10
69689.9563
 20
21285.6635
 40
320
 41
0.5
 50
90
  1
     kA
  0
TEXT
  8
4-2
 62
     7
  7
STANDARD
 10
70399.9563
 20
23352.5003
 40
320
 41
1
 50
90
  1
№
  0
TEXT
  8
4-2
 62
     7
  7
STANDARD
 10
69689.9563
 20
23272.5003
 40
320
 41
0.5
 50
90
  1
MCB
  0
TEXT
  8
4-2
 62
     7
  7
STANDARD
 10
17185.3463
 20
32010.3403
 40
250
 41
0.5
 50
0
  1
CTx2
  0
TEXT
  8
4-2
 62
     7
  7
STANDARD
 10
16398.9763
 20
31543.8803
 40
250
 41
0.5
 50
0
  1
 
  0
TEXT
  8
4-2
 62
     7
  7
STANDARD
 10
11842.9563
 20
7746.3934
 40
320
 41
0.5
 50
0
  1
BOX NO.
  0
TEXT
  8
4-2
 62
     7
  7
STANDARD
 10
11824.9563
 20
11204.49
 40
320
 41
1
 50
90
  1
負　　　　　荷
  0
TEXT
  8
4-2
 62
     7
  7
STANDARD
 10
13244.9563
 20
10295.3064
 40
320
 41
1
 50
90
  1
名　　　　　称
  0
TEXT
  8
4-2
 62
     7
  7
STANDARD
 10
13244.9563
 20
13502.8574
 40
320
 41
1
 50
90
  1
容　　量
  0
TEXT
  8
4-2
 62
     7
  7
STANDARD
 10
13019.6581
 20
15481.2247
 40
320
 41
1
 50
90
  1
サイズ
  0
TEXT
  8
4-2
 62
     7
  7
STANDARD
 10
12033.148
 20
15481.2247
 40
320
 41
1
 50
90
  1
幹　線
  0
TEXT
  8
4-2
 62
     7
  7
STANDARD
 10
12061.6229
 20
8596.5975
 40
320
 41
1
 50
90
  1
幹線
  0
TEXT
  8
4-2
 62
     7
  7
STANDARD
 10
12991.1832
 20
8756.5975
 40
320
 41
1
 50
90
  1
№
  0
TEXT
  8
4-2
 62
     7
  7
STANDARD
 10
11588.2896
 20
18654.7452
 40
320
 41
1
 50
90
  1
機　　　　　器
  0
TEXT
  8
4-2
 62
     7
  7
STANDARD
 10
13008.2896
 20
17139.5921
 40
320
 41
1
 50
90
  1
形　　状
  0
TEXT
  8
4-2
 62
     7
  7
STANDARD
 10
12534.9563
 20
20043.9288
 40
320
 41
1
 50
90
  1
仕　　様
  0
TEXT
  8
4-2
 62
     7
  7
STANDARD
 10
13481.6229
 20
19210.5105
 40
320
 41
1
 50
90
  1
定　　格
  0
TEXT
  8
4-2
 62
     7
  7
STANDARD
 10
13481.6229
 20
21685.6635
 40
320
 41
0.5
 50
90
  1
RC
  0
TEXT
  8
4-2
 62
     7
  7
STANDARD
 10
11861.4036
 20
23180.3022
 40
320
 41
1
 50
90
  1
機種
  0
TEXT
  8
4-2
 62
     7
  7
STANDARD
 10
12991.1832
 20
23352.5003
 40
320
 41
1
 50
90
  1
№
  0
TEXT
  8
4-2
 62
     7
  7
STANDARD
 10
14309.9563
 20
23272.5003
 40
320
 41
0.5
 50
90
  1
MCB
  0
TEXT
  8
4-2
 62
     7
  7
STANDARD
 10
15019.9563
 20
23352.5003
 40
320
 41
1
 50
90
  1
№
  0
TEXT
  8
4-2
 62
     7
  7
STANDARD
 10
16439.9563
 20
23352.5003
 40
320
 41
1
 50
90
  1
№
  0
TEXT
  8
4-2
 62
     7
  7
STANDARD
 10
15729.9563
 20
23272.5003
 40
320
 41
0.5
 50
90
  1
MCB
  0
TEXT
  8
4-2
 62
     7
  7
STANDARD
 10
17859.9563
 20
23352.5003
 40
320
 41
1
 50
90
  1
№
  0
TEXT
  8
4-2
 62
     7
  7
STANDARD
 10
17149.9563
 20
23272.5003
 40
320
 41
0.5
 50
90
  1
MCB
  0
TEXT
  8
4-2
 62
     7
  7
STANDARD
 10
19279.9563
 20
23352.5003
 40
320
 41
1
 50
90
  1
№
  0
TEXT
  8
4-2
 62
     7
  7
STANDARD
 10
18569.9563
 20
23272.5003
 40
320
 41
0.5
 50
90
  1
MCB
  0
TEXT
  8
4-2
 62
     7
  7
STANDARD
 10
20699.9563
 20
23352.5003
 40
320
 41
1
 50
90
  1
№
  0
TEXT
  8
4-2
 62
     7
  7
STANDARD
 10
19989.9563
 20
23272.5003
 40
320
 41
0.5
 50
90
  1
MCB
  0
TEXT
  8
4-2
 62
     7
  7
STANDARD
 10
22119.9563
 20
23352.5003
 40
320
 41
1
 50
90
  1
№
  0
TEXT
  8
4-2
 62
     7
  7
STANDARD
 10
21409.9563
 20
23272.5003
 40
320
 41
0.5
 50
90
  1
MCB
  0
TEXT
  8
4-2
 62
     7
  7
STANDARD
 10
23539.9563
 20
23352.5003
 40
320
 41
1
 50
90
  1
№
  0
TEXT
  8
4-2
 62
     7
  7
STANDARD
 10
22829.9563
 20
23272.5003
 40
320
 41
0.5
 50
90
  1
MCB
  0
TEXT
  8
4-2
 62
     7
  7
STANDARD
 10
26379.9563
 20
23352.5003
 40
320
 41
1
 50
90
  1
№
  0
TEXT
  8
4-2
 62
     7
  7
STANDARD
 10
25669.9563
 20
23272.5003
 40
320
 41
0.5
 50
90
  1
MCB
  0
TEXT
  8
4-2
 62
     7
  7
STANDARD
 10
27799.9563
 20
23352.5003
 40
320
 41
1
 50
90
  1
№
  0
TEXT
  8
4-2
 62
     7
  7
STANDARD
 10
27089.9563
 20
23272.5003
 40
320
 41
0.5
 50
90
  1
MCB
  0
TEXT
  8
4-2
 62
     7
  7
STANDARD
 10
29219.9563
 20
23352.5003
 40
320
 41
1
 50
90
  1
№
  0
TEXT
  8
4-2
 62
     7
  7
STANDARD
 10
28509.9563
 20
23272.5003
 40
320
 41
0.5
 50
90
  1
MCB
  0
TEXT
  8
4-2
 62
     7
  7
STANDARD
 10
30639.9563
 20
23352.5003
 40
320
 41
1
 50
90
  1
№
  0
TEXT
  8
4-2
 62
     7
  7
STANDARD
 10
29929.9563
 20
23272.5003
 40
320
 41
0.5
 50
90
  1
MCB
  0
TEXT
  8
4-2
 62
     7
  7
STANDARD
 10
32059.9563
 20
23352.5003
 40
320
 41
1
 50
90
  1
№
  0
TEXT
  8
4-2
 62
     7
  7
STANDARD
 10
31349.9563
 20
23272.5003
 40
320
 41
0.5
 50
90
  1
MCB
  0
TEXT
  8
4-2
 62
     7
  7
STANDARD
 10
33479.9563
 20
23352.5003
 40
320
 41
1
 50
90
  1
№
  0
TEXT
  8
4-2
 62
     7
  7
STANDARD
 10
32769.9563
 20
23272.5003
 40
320
 41
0.5
 50
90
  1
MCB
  0
TEXT
  8
4-2
 62
     7
  7
STANDARD
 10
52649.9563
 20
23272.5003
 40
320
 41
0.5
 50
90
  1
MCB
  0
TEXT
  8
4-2
 62
     7
  7
STANDARD
 10
53359.9563
 20
23352.5003
 40
320
 41
1
 50
90
  1
№
  0
TEXT
  8
4-2
 62
     7
  7
STANDARD
 10
51229.9563
 20
23272.5003
 40
320
 41
0.5
 50
90
  1
MCB
  0
TEXT
  8
4-2
 62
     7
  7
STANDARD
 10
51939.9563
 20
23352.5003
 40
320
 41
1
 50
90
  1
№
  0
TEXT
  8
4-2
 62
     7
  7
STANDARD
 10
49809.9563
 20
23272.5003
 40
320
 41
0.5
 50
90
  1
MCB
  0
TEXT
  8
4-2
 62
     7
  7
STANDARD
 10
50519.9563
 20
23352.5003
 40
320
 41
1
 50
90
  1
№
  0
TEXT
  8
4-2
 62
     7
  7
STANDARD
 10
46969.9563
 20
23272.5003
 40
320
 41
0.5
 50
90
  1
MCB
  0
TEXT
  8
4-2
 62
     7
  7
STANDARD
 10
47679.9563
 20
23352.5003
 40
320
 41
1
 50
90
  1
№
  0
TEXT
  8
4-2
 62
     7
  7
STANDARD
 10
45549.9563
 20
23272.5003
 40
320
 41
0.5
 50
90
  1
MCB
  0
TEXT
  8
4-2
 62
     7
  7
STANDARD
 10
46259.9563
 20
23352.5003
 40
320
 41
1
 50
90
  1
№
  0
TEXT
  8
4-2
 62
     7
  7
STANDARD
 10
44129.9563
 20
23272.5003
 40
320
 41
0.5
 50
90
  1
MCB
  0
TEXT
  8
4-2
 62
     7
  7
STANDARD
 10
44839.9563
 20
23352.5003
 40
320
 41
1
 50
90
  1
№
  0
TEXT
  8
4-2
 62
     7
  7
STANDARD
 10
42709.9563
 20
23272.5003
 40
320
 41
0.5
 50
90
  1
MCB
  0
TEXT
  8
4-2
 62
     7
  7
STANDARD
 10
43419.9563
 20
23352.5003
 40
320
 41
1
 50
90
  1
№
  0
TEXT
  8
4-2
 62
     7
  7
STANDARD
 10
41289.9563
 20
23272.5003
 40
320
 41
0.5
 50
90
  1
MCB
  0
TEXT
  8
4-2
 62
     7
  7
STANDARD
 10
41999.9563
 20
23352.5003
 40
320
 41
1
 50
90
  1
№
  0
TEXT
  8
4-2
 62
     7
  7
STANDARD
 10
39869.9563
 20
23272.5003
 40
320
 41
0.5
 50
90
  1
MCB
  0
TEXT
  8
4-2
 62
     7
  7
STANDARD
 10
40579.9563
 20
23352.5003
 40
320
 41
1
 50
90
  1
№
  0
TEXT
  8
4-2
 62
     7
  7
STANDARD
 10
38449.9563
 20
23272.5003
 40
320
 41
0.5
 50
90
  1
MCB
  0
TEXT
  8
4-2
 62
     7
  7
STANDARD
 10
39159.9563
 20
23352.5003
 40
320
 41
1
 50
90
  1
№
  0
TEXT
  8
4-2
 62
     7
  7
STANDARD
 10
35609.9563
 20
23272.5003
 40
320
 41
0.5
 50
90
  1
MCB
  0
TEXT
  8
4-2
 62
     7
  7
STANDARD
 10
36319.9563
 20
23352.5003
 40
320
 41
1
 50
90
  1
№
  0
TEXT
  8
4-2
 62
     7
  7
STANDARD
 10
34899.9563
 20
23352.5003
 40
320
 41
1
 50
90
  1
№
  0
TEXT
  8
4-2
 62
     7
  7
STANDARD
 10
34189.9563
 20
23272.5003
 40
320
 41
0.5
 50
90
  1
MCB
  0
TEXT
  8
4-2
 62
     7
  7
STANDARD
 10
68269.9563
 20
23272.5003
 40
320
 41
0.5
 50
90
  1
MCB
  0
TEXT
  8
4-2
 62
     7
  7
STANDARD
 10
68979.9563
 20
23352.5003
 40
320
 41
1
 50
90
  1
№
  0
TEXT
  8
4-2
 62
     7
  7
STANDARD
 10
66849.9563
 20
23272.5003
 40
320
 41
0.5
 50
90
  1
MCB
  0
TEXT
  8
4-2
 62
     7
  7
STANDARD
 10
67559.9563
 20
23352.5003
 40
320
 41
1
 50
90
  1
№
  0
TEXT
  8
4-2
 62
     7
  7
STANDARD
 10
65429.9563
 20
23272.5003
 40
320
 41
0.5
 50
90
  1
MCB
  0
TEXT
  8
4-2
 62
     7
  7
STANDARD
 10
66139.9563
 20
23352.5003
 40
320
 41
1
 50
90
  1
№
  0
TEXT
  8
4-2
 62
     7
  7
STANDARD
 10
64009.9563
 20
23272.5003
 40
320
 41
0.5
 50
90
  1
MCB
  0
TEXT
  8
4-2
 62
     7
  7
STANDARD
 10
64719.9563
 20
23352.5003
 40
320
 41
1
 50
90
  1
№
  0
TEXT
  8
4-2
 62
     7
  7
STANDARD
 10
62589.9563
 20
23272.5003
 40
320
 41
0.5
 50
90
  1
MCB
  0
TEXT
  8
4-2
 62
     7
  7
STANDARD
 10
63299.9563
 20
23352.5003
 40
320
 41
1
 50
90
  1
№
  0
TEXT
  8
4-2
 62
     7
  7
STANDARD
 10
58329.9563
 20
23272.5003
 40
320
 41
0.5
 50
90
  1
MCB
  0
TEXT
  8
4-2
 62
     7
  7
STANDARD
 10
59039.9563
 20
23352.5003
 40
320
 41
1
 50
90
  1
№
  0
TEXT
  8
4-2
 62
     7
  7
STANDARD
 10
56909.9563
 20
23272.5003
 40
320
 41
0.5
 50
90
  1
MCB
  0
TEXT
  8
4-2
 62
     7
  7
STANDARD
 10
57619.9563
 20
23352.5003
 40
320
 41
1
 50
90
  1
№
  0
TEXT
  8
4-2
 62
     7
  7
STANDARD
 10
55489.9563
 20
23272.5003
 40
320
 41
0.5
 50
90
  1
MCB
  0
TEXT
  8
4-2
 62
     7
  7
STANDARD
 10
56199.9563
 20
23352.5003
 40
320
 41
1
 50
90
  1
№
  0
TEXT
  8
4-2
 62
     7
  7
STANDARD
 10
54779.9563
 20
23352.5003
 40
320
 41
1
 50
90
  1
№
  0
TEXT
  8
4-2
 62
     7
  7
STANDARD
 10
54069.9563
 20
23272.5003
 40
320
 41
0.5
 50
90
  1
MCB
  0
TEXT
  8
4-2
 62
     7
  7
STANDARD
 10
14309.9563
 20
21285.6635
 40
320
 41
0.5
 50
90
  1
     kA
  0
TEXT
  8
4-2
 62
     7
  7
STANDARD
 10
15729.9563
 20
21285.6635
 40
320
 41
0.5
 50
90
  1
     kA
  0
TEXT
  8
4-2
 62
     7
  7
STANDARD
 10
17149.9563
 20
21285.6635
 40
320
 41
0.5
 50
90
  1
     kA
  0
TEXT
  8
4-2
 62
     7
  7
STANDARD
 10
18569.9563
 20
21285.6635
 40
320
 41
0.5
 50
90
  1
     kA
  0
TEXT
  8
4-2
 62
     7
  7
STANDARD
 10
19989.9563
 20
21285.6635
 40
320
 41
0.5
 50
90
  1
     kA
  0
TEXT
  8
4-2
 62
     7
  7
STANDARD
 10
21409.9563
 20
21285.6635
 40
320
 41
0.5
 50
90
  1
     kA
  0
TEXT
  8
4-2
 62
     7
  7
STANDARD
 10
22829.9563
 20
21285.6635
 40
320
 41
0.5
 50
90
  1
     kA
  0
TEXT
  8
4-2
 62
     7
  7
STANDARD
 10
25669.9563
 20
21285.6635
 40
320
 41
0.5
 50
90
  1
     kA
  0
TEXT
  8
4-2
 62
     7
  7
STANDARD
 10
27089.9563
 20
21285.6635
 40
320
 41
0.5
 50
90
  1
     kA
  0
TEXT
  8
4-2
 62
     7
  7
STANDARD
 10
28509.9563
 20
21285.6635
 40
320
 41
0.5
 50
90
  1
     kA
  0
TEXT
  8
4-2
 62
     7
  7
STANDARD
 10
44129.9563
 20
21285.6635
 40
320
 41
0.5
 50
90
  1
     kA
  0
TEXT
  8
4-2
 62
     7
  7
STANDARD
 10
42709.9563
 20
21285.6635
 40
320
 41
0.5
 50
90
  1
     kA
  0
TEXT
  8
4-2
 62
     7
  7
STANDARD
 10
41289.9563
 20
21285.6635
 40
320
 41
0.5
 50
90
  1
     kA
  0
TEXT
  8
4-2
 62
     7
  7
STANDARD
 10
39869.9563
 20
21285.6635
 40
320
 41
0.5
 50
90
  1
     kA
  0
TEXT
  8
4-2
 62
     7
  7
STANDARD
 10
38449.9563
 20
21285.6635
 40
320
 41
0.5
 50
90
  1
     kA
  0
TEXT
  8
4-2
 62
     7
  7
STANDARD
 10
35609.9563
 20
21285.6635
 40
320
 41
0.5
 50
90
  1
     kA
  0
TEXT
  8
4-2
 62
     7
  7
STANDARD
 10
34189.9563
 20
21285.6635
 40
320
 41
0.5
 50
90
  1
     kA
  0
TEXT
  8
4-2
 62
     7
  7
STANDARD
 10
32769.9563
 20
21285.6635
 40
320
 41
0.5
 50
90
  1
     kA
  0
TEXT
  8
4-2
 62
     7
  7
STANDARD
 10
31349.9563
 20
21285.6635
 40
320
 41
0.5
 50
90
  1
     kA
  0
TEXT
  8
4-2
 62
     7
  7
STANDARD
 10
29929.9563
 20
21285.6635
 40
320
 41
0.5
 50
90
  1
     kA
  0
TEXT
  8
4-2
 62
     7
  7
STANDARD
 10
58329.9563
 20
21285.6635
 40
320
 41
0.5
 50
90
  1
     kA
  0
TEXT
  8
4-2
 62
     7
  7
STANDARD
 10
56909.9563
 20
21285.6635
 40
320
 41
0.5
 50
90
  1
     kA
  0
TEXT
  8
4-2
 62
     7
  7
STANDARD
 10
55489.9563
 20
21285.6635
 40
320
 41
0.5
 50
90
  1
     kA
  0
TEXT
  8
4-2
 62
     7
  7
STANDARD
 10
54069.9563
 20
21285.6635
 40
320
 41
0.5
 50
90
  1
     kA
  0
TEXT
  8
4-2
 62
     7
  7
STANDARD
 10
52649.9563
 20
21285.6635
 40
320
 41
0.5
 50
90
  1
     kA
  0
TEXT
  8
4-2
 62
     7
  7
STANDARD
 10
51229.9563
 20
21285.6635
 40
320
 41
0.5
 50
90
  1
     kA
  0
TEXT
  8
4-2
 62
     7
  7
STANDARD
 10
49809.9563
 20
21285.6635
 40
320
 41
0.5
 50
90
  1
     kA
  0
TEXT
  8
4-2
 62
     7
  7
STANDARD
 10
46969.9563
 20
21285.6635
 40
320
 41
0.5
 50
90
  1
     kA
  0
TEXT
  8
4-2
 62
     7
  7
STANDARD
 10
45549.9563
 20
21285.6635
 40
320
 41
0.5
 50
90
  1
     kA
  0
TEXT
  8
4-2
 62
     7
  7
STANDARD
 10
62589.9563
 20
21285.6635
 40
320
 41
0.5
 50
90
  1
     kA
  0
TEXT
  8
4-2
 62
     7
  7
STANDARD
 10
64009.9563
 20
21285.6635
 40
320
 41
0.5
 50
90
  1
     kA
  0
TEXT
  8
4-2
 62
     7
  7
STANDARD
 10
65429.9563
 20
21285.6635
 40
320
 41
0.5
 50
90
  1
     kA
  0
TEXT
  8
4-2
 62
     7
  7
STANDARD
 10
66849.9563
 20
21285.6635
 40
320
 41
0.5
 50
90
  1
     kA
  0
TEXT
  8
4-2
 62
     7
  7
STANDARD
 10
68269.9563
 20
21285.6635
 40
320
 41
0.5
 50
90
  1
     kA
  0
TEXT
  8
4-2
 62
     7
  7
STANDARD
 10
15019.9563
 20
21525.6635
 40
320
 41
1
 50
90
  1
数字
  0
TEXT
  8
4-2
 62
     7
  7
STANDARD
 10
16439.9563
 20
21525.6635
 40
320
 41
1
 50
90
  1
数字
  0
TEXT
  8
4-2
 62
     7
  7
STANDARD
 10
17859.9563
 20
21525.6635
 40
320
 41
1
 50
90
  1
数字
  0
TEXT
  8
4-2
 62
     7
  7
STANDARD
 10
19279.9563
 20
21525.6635
 40
320
 41
1
 50
90
  1
数字
  0
TEXT
  8
4-2
 62
     7
  7
STANDARD
 10
20699.9563
 20
21525.6635
 40
320
 41
1
 50
90
  1
数字
  0
TEXT
  8
4-2
 62
     7
  7
STANDARD
 10
22119.9563
 20
21525.6635
 40
320
 41
1
 50
90
  1
数字
  0
TEXT
  8
4-2
 62
     7
  7
STANDARD
 10
23539.9563
 20
21525.6635
 40
320
 41
1
 50
90
  1
数字
  0
TEXT
  8
4-2
 62
     7
  7
STANDARD
 10
26379.9563
 20
21525.6635
 40
320
 41
1
 50
90
  1
数字
  0
TEXT
  8
4-2
 62
     7
  7
STANDARD
 10
27799.9563
 20
21525.6635
 40
320
 41
1
 50
90
  1
数字
  0
TEXT
  8
4-2
 62
     7
  7
STANDARD
 10
41999.9563
 20
21525.6635
 40
320
 41
1
 50
90
  1
数字
  0
TEXT
  8
4-2
 62
     7
  7
STANDARD
 10
40579.9563
 20
21525.6635
 40
320
 41
1
 50
90
  1
数字
  0
TEXT
  8
4-2
 62
     7
  7
STANDARD
 10
39159.9563
 20
21525.6635
 40
320
 41
1
 50
90
  1
数字
  0
TEXT
  8
4-2
 62
     7
  7
STANDARD
 10
36319.9563
 20
21525.6635
 40
320
 41
1
 50
90
  1
数字
  0
TEXT
  8
4-2
 62
     7
  7
STANDARD
 10
34899.9563
 20
21525.6635
 40
320
 41
1
 50
90
  1
数字
  0
TEXT
  8
4-2
 62
     7
  7
STANDARD
 10
33479.9563
 20
21525.6635
 40
320
 41
1
 50
90
  1
数字
  0
TEXT
  8
4-2
 62
     7
  7
STANDARD
 10
32059.9563
 20
21525.6635
 40
320
 41
1
 50
90
  1
数字
  0
TEXT
  8
4-2
 62
     7
  7
STANDARD
 10
30639.9563
 20
21525.6635
 40
320
 41
1
 50
90
  1
数字
  0
TEXT
  8
4-2
 62
     7
  7
STANDARD
 10
29219.9563
 20
21525.6635
 40
320
 41
1
 50
90
  1
数字
  0
TEXT
  8
4-2
 62
     7
  7
STANDARD
 10
56199.9563
 20
21525.6635
 40
320
 41
1
 50
90
  1
数字
  0
TEXT
  8
4-2
 62
     7
  7
STANDARD
 10
54779.9563
 20
21525.6635
 40
320
 41
1
 50
90
  1
数字
  0
TEXT
  8
4-2
 62
     7
  7
STANDARD
 10
53359.9563
 20
21525.6635
 40
320
 41
1
 50
90
  1
数字
  0
TEXT
  8
4-2
 62
     7
  7
STANDARD
 10
51939.9563
 20
21525.6635
 40
320
 41
1
 50
90
  1
数字
  0
TEXT
  8
4-2
 62
     7
  7
STANDARD
 10
50519.9563
 20
21525.6635
 40
320
 41
1
 50
90
  1
数字
  0
TEXT
  8
4-2
 62
     7
  7
STANDARD
 10
47679.9563
 20
21525.6635
 40
320
 41
1
 50
90
  1
数字
  0
TEXT
  8
4-2
 62
     7
  7
STANDARD
 10
46259.9563
 20
21525.6635
 40
320
 41
1
 50
90
  1
数字
  0
TEXT
  8
4-2
 62
     7
  7
STANDARD
 10
44839.9563
 20
21525.6635
 40
320
 41
1
 50
90
  1
数字
  0
TEXT
  8
4-2
 62
     7
  7
STANDARD
 10
43419.9563
 20
21525.6635
 40
320
 41
1
 50
90
  1
数字
  0
TEXT
  8
4-2
 62
     7
  7
STANDARD
 10
68979.9563
 20
21525.6635
 40
320
 41
1
 50
90
  1
数字
  0
TEXT
  8
4-2
 62
     7
  7
STANDARD
 10
67559.9563
 20
21525.6635
 40
320
 41
1
 50
90
  1
数字
  0
TEXT
  8
4-2
 62
     7
  7
STANDARD
 10
66139.9563
 20
21525.6635
 40
320
 41
1
 50
90
  1
数字
  0
TEXT
  8
4-2
 62
     7
  7
STANDARD
 10
64719.9563
 20
21525.6635
 40
320
 41
1
 50
90
  1
数字
  0
TEXT
  8
4-2
 62
     7
  7
STANDARD
 10
63299.9563
 20
21525.6635
 40
320
 41
1
 50
90
  1
数字
  0
TEXT
  8
4-2
 62
     7
  7
STANDARD
 10
59039.9563
 20
21525.6635
 40
320
 41
1
 50
90
  1
数字
  0
TEXT
  8
4-2
 62
     7
  7
STANDARD
 10
57619.9563
 20
21525.6635
 40
320
 41
1
 50
90
  1
数字
  0
TEXT
  8
4-2
 62
     7
  7
STANDARD
 10
14309.9563
 20
18970.5105
 40
320
 41
1
 50
90
  1
3P○AF/○AT
  0
TEXT
  8
4-2
 62
     7
  7
STANDARD
 10
15729.9563
 20
18970.5105
 40
320
 41
1
 50
90
  1
3P○AF/○AT
  0
TEXT
  8
4-2
 62
     7
  7
STANDARD
 10
17149.9563
 20
18970.5105
 40
320
 41
1
 50
90
  1
3P○AF/○AT
  0
TEXT
  8
4-2
 62
     7
  7
STANDARD
 10
18569.9563
 20
18970.5105
 40
320
 41
1
 50
90
  1
3P○AF/○AT
  0
TEXT
  8
4-2
 62
     7
  7
STANDARD
 10
19989.9563
 20
18970.5105
 40
320
 41
1
 50
90
  1
3P○AF/○AT
  0
TEXT
  8
4-2
 62
     7
  7
STANDARD
 10
21409.9563
 20
18970.5105
 40
320
 41
1
 50
90
  1
3P○AF/○AT
  0
TEXT
  8
4-2
 62
     7
  7
STANDARD
 10
22829.9563
 20
18970.5105
 40
320
 41
1
 50
90
  1
3P○AF/○AT
  0
TEXT
  8
4-2
 62
     7
  7
STANDARD
 10
25669.9563
 20
18970.5105
 40
320
 41
1
 50
90
  1
3P○AF/○AT
  0
TEXT
  8
4-2
 62
     7
  7
STANDARD
 10
27089.9563
 20
18970.5105
 40
320
 41
1
 50
90
  1
3P○AF/○AT
  0
TEXT
  8
4-2
 62
     7
  7
STANDARD
 10
41289.9563
 20
18970.5105
 40
320
 41
1
 50
90
  1
3P○AF/○AT
  0
TEXT
  8
4-2
 62
     7
  7
STANDARD
 10
39869.9563
 20
18970.5105
 40
320
 41
1
 50
90
  1
3P○AF/○AT
  0
TEXT
  8
4-2
 62
     7
  7
STANDARD
 10
38449.9563
 20
18970.5105
 40
320
 41
1
 50
90
  1
3P○AF/○AT
  0
TEXT
  8
4-2
 62
     7
  7
STANDARD
 10
35609.9563
 20
18970.5105
 40
320
 41
1
 50
90
  1
3P○AF/○AT
  0
TEXT
  8
4-2
 62
     7
  7
STANDARD
 10
34189.9563
 20
18970.5105
 40
320
 41
1
 50
90
  1
3P○AF/○AT
  0
TEXT
  8
4-2
 62
     7
  7
STANDARD
 10
32769.9563
 20
18970.5105
 40
320
 41
1
 50
90
  1
3P○AF/○AT
  0
TEXT
  8
4-2
 62
     7
  7
STANDARD
 10
31349.9563
 20
18970.5105
 40
320
 41
1
 50
90
  1
3P○AF/○AT
  0
TEXT
  8
4-2
 62
     7
  7
STANDARD
 10
29929.9563
 20
18970.5105
 40
320
 41
1
 50
90
  1
3P○AF/○AT
  0
TEXT
  8
4-2
 62
     7
  7
STANDARD
 10
28509.9563
 20
18970.5105
 40
320
 41
1
 50
90
  1
3P○AF/○AT
  0
TEXT
  8
4-2
 62
     7
  7
STANDARD
 10
55489.9563
 20
18970.5105
 40
320
 41
1
 50
90
  1
3P○AF/○AT
  0
TEXT
  8
4-2
 62
     7
  7
STANDARD
 10
54069.9563
 20
18970.5105
 40
320
 41
1
 50
90
  1
3P○AF/○AT
  0
TEXT
  8
4-2
 62
     7
  7
STANDARD
 10
52649.9563
 20
18970.5105
 40
320
 41
1
 50
90
  1
3P○AF/○AT
  0
TEXT
  8
4-2
 62
     7
  7
STANDARD
 10
51229.9563
 20
18970.5105
 40
320
 41
1
 50
90
  1
3P○AF/○AT
  0
TEXT
  8
4-2
 62
     7
  7
STANDARD
 10
49809.9563
 20
18970.5105
 40
320
 41
1
 50
90
  1
3P○AF/○AT
  0
TEXT
  8
4-2
 62
     7
  7
STANDARD
 10
46969.9563
 20
18970.5105
 40
320
 41
1
 50
90
  1
3P○AF/○AT
  0
TEXT
  8
4-2
 62
     7
  7
STANDARD
 10
45549.9563
 20
18970.5105
 40
320
 41
1
 50
90
  1
3P○AF/○AT
  0
TEXT
  8
4-2
 62
     7
  7
STANDARD
 10
44129.9563
 20
18970.5105
 40
320
 41
1
 50
90
  1
3P○AF/○AT
  0
TEXT
  8
4-2
 62
     7
  7
STANDARD
 10
42709.9563
 20
18970.5105
 40
320
 41
1
 50
90
  1
3P○AF/○AT
  0
TEXT
  8
4-2
 62
     7
  7
STANDARD
 10
68269.9563
 20
18970.5105
 40
320
 41
1
 50
90
  1
3P○AF/○AT
  0
TEXT
  8
4-2
 62
     7
  7
STANDARD
 10
66849.9563
 20
18970.5105
 40
320
 41
1
 50
90
  1
3P○AF/○AT
  0
TEXT
  8
4-2
 62
     7
  7
STANDARD
 10
65429.9563
 20
18970.5105
 40
320
 41
1
 50
90
  1
3P○AF/○AT
  0
TEXT
  8
4-2
 62
     7
  7
STANDARD
 10
64009.9563
 20
18970.5105
 40
320
 41
1
 50
90
  1
3P○AF/○AT
  0
TEXT
  8
4-2
 62
     7
  7
STANDARD
 10
62589.9563
 20
18970.5105
 40
320
 41
1
 50
90
  1
3P○AF/○AT
  0
TEXT
  8
4-2
 62
     7
  7
STANDARD
 10
58329.9563
 20
18970.5105
 40
320
 41
1
 50
90
  1
3P○AF/○AT
  0
TEXT
  8
4-2
 62
     7
  7
STANDARD
 10
56909.9563
 20
18970.5105
 40
320
 41
1
 50
90
  1
3P○AF/○AT
  0
TEXT
  8
4-2
 62
     7
  7
STANDARD
 10
14993.5513
 20
18946.4809
 40
320
 41
0.5
 50
90
  1
AL
  0
TEXT
  8
4-2
 62
     7
  7
STANDARD
 10
14309.9563
 20
15721.2247
 40
320
 41
0.5
 50
90
  1
CVT
  0
TEXT
  8
4-2
 62
     7
  7
STANDARD
 10
15019.9563
 20
15641.2247
 40
320
 41
1
 50
90
  1
数字
  0
TEXT
  8
4-2
 62
     7
  7
STANDARD
 10
14768.5378
 20
16425.9569
 40
200
 41
1
 50
90
  1
□
  0
TEXT
  8
4-2
 62
     7
  7
STANDARD
 10
16188.5378
 20
16425.9569
 40
200
 41
1
 50
90
  1
□
  0
TEXT
  8
4-2
 62
     7
  7
STANDARD
 10
16439.9563
 20
15641.2247
 40
320
 41
1
 50
90
  1
数字
  0
TEXT
  8
4-2
 62
     7
  7
STANDARD
 10
15729.9563
 20
15721.2247
 40
320
 41
0.5
 50
90
  1
CVT
  0
TEXT
  8
4-2
 62
     7
  7
STANDARD
 10
17608.5378
 20
16425.9569
 40
200
 41
1
 50
90
  1
□
  0
TEXT
  8
4-2
 62
     7
  7
STANDARD
 10
17859.9563
 20
15641.2247
 40
320
 41
1
 50
90
  1
数字
  0
TEXT
  8
4-2
 62
     7
  7
STANDARD
 10
17149.9563
 20
15721.2247
 40
320
 41
0.5
 50
90
  1
CVT
  0
TEXT
  8
4-2
 62
     7
  7
STANDARD
 10
19028.5378
 20
16425.9569
 40
200
 41
1
 50
90
  1
□
  0
TEXT
  8
4-2
 62
     7
  7
STANDARD
 10
19279.9563
 20
15641.2247
 40
320
 41
1
 50
90
  1
数字
  0
TEXT
  8
4-2
 62
     7
  7
STANDARD
 10
18569.9563
 20
15721.2247
 40
320
 41
0.5
 50
90
  1
CVT
  0
TEXT
  8
4-2
 62
     7
  7
STANDARD
 10
20448.5378
 20
16425.9569
 40
200
 41
1
 50
90
  1
□
  0
TEXT
  8
4-2
 62
     7
  7
STANDARD
 10
20699.9563
 20
15641.2247
 40
320
 41
1
 50
90
  1
数字
  0
TEXT
  8
4-2
 62
     7
  7
STANDARD
 10
19989.9563
 20
15721.2247
 40
320
 41
0.5
 50
90
  1
CVT
  0
TEXT
  8
4-2
 62
     7
  7
STANDARD
 10
21868.5378
 20
16425.9569
 40
200
 41
1
 50
90
  1
□
  0
TEXT
  8
4-2
 62
     7
  7
STANDARD
 10
22119.9563
 20
15641.2247
 40
320
 41
1
 50
90
  1
数字
  0
TEXT
  8
4-2
 62
     7
  7
STANDARD
 10
21409.9563
 20
15721.2247
 40
320
 41
0.5
 50
90
  1
CVT
  0
TEXT
  8
4-2
 62
     7
  7
STANDARD
 10
23288.5378
 20
16425.9569
 40
200
 41
1
 50
90
  1
□
  0
TEXT
  8
4-2
 62
     7
  7
STANDARD
 10
23539.9563
 20
15641.2247
 40
320
 41
1
 50
90
  1
数字
  0
TEXT
  8
4-2
 62
     7
  7
STANDARD
 10
22829.9563
 20
15721.2247
 40
320
 41
0.5
 50
90
  1
CVT
  0
TEXT
  8
4-2
 62
     7
  7
STANDARD
 10
26128.5378
 20
16425.9569
 40
200
 41
1
 50
90
  1
□
  0
TEXT
  8
4-2
 62
     7
  7
STANDARD
 10
26379.9563
 20
15641.2247
 40
320
 41
1
 50
90
  1
数字
  0
TEXT
  8
4-2
 62
     7
  7
STANDARD
 10
25669.9563
 20
15721.2247
 40
320
 41
0.5
 50
90
  1
CVT
  0
TEXT
  8
4-2
 62
     7
  7
STANDARD
 10
27548.5378
 20
16425.9569
 40
200
 41
1
 50
90
  1
□
  0
TEXT
  8
4-2
 62
     7
  7
STANDARD
 10
27799.9563
 20
15641.2247
 40
320
 41
1
 50
90
  1
数字
  0
TEXT
  8
4-2
 62
     7
  7
STANDARD
 10
27089.9563
 20
15721.2247
 40
320
 41
0.5
 50
90
  1
CVT
  0
TEXT
  8
4-2
 62
     7
  7
STANDARD
 10
28968.5378
 20
16425.9569
 40
200
 41
1
 50
90
  1
□
  0
TEXT
  8
4-2
 62
     7
  7
STANDARD
 10
29219.9563
 20
15641.2247
 40
320
 41
1
 50
90
  1
数字
  0
TEXT
  8
4-2
 62
     7
  7
STANDARD
 10
28509.9563
 20
15721.2247
 40
320
 41
0.5
 50
90
  1
CVT
  0
TEXT
  8
4-2
 62
     7
  7
STANDARD
 10
30388.5378
 20
16425.9569
 40
200
 41
1
 50
90
  1
□
  0
TEXT
  8
4-2
 62
     7
  7
STANDARD
 10
30639.9563
 20
15641.2247
 40
320
 41
1
 50
90
  1
数字
  0
TEXT
  8
4-2
 62
     7
  7
STANDARD
 10
29929.9563
 20
15721.2247
 40
320
 41
0.5
 50
90
  1
CVT
  0
TEXT
  8
4-2
 62
     7
  7
STANDARD
 10
31808.5378
 20
16425.9569
 40
200
 41
1
 50
90
  1
□
  0
TEXT
  8
4-2
 62
     7
  7
STANDARD
 10
32059.9563
 20
15641.2247
 40
320
 41
1
 50
90
  1
数字
  0
TEXT
  8
4-2
 62
     7
  7
STANDARD
 10
31349.9563
 20
15721.2247
 40
320
 41
0.5
 50
90
  1
CVT
  0
TEXT
  8
4-2
 62
     7
  7
STANDARD
 10
33228.5378
 20
16425.9569
 40
200
 41
1
 50
90
  1
□
  0
TEXT
  8
4-2
 62
     7
  7
STANDARD
 10
33479.9563
 20
15641.2247
 40
320
 41
1
 50
90
  1
数字
  0
TEXT
  8
4-2
 62
     7
  7
STANDARD
 10
32769.9563
 20
15721.2247
 40
320
 41
0.5
 50
90
  1
CVT
  0
TEXT
  8
4-2
 62
     7
  7
STANDARD
 10
34648.5378
 20
16425.9569
 40
200
 41
1
 50
90
  1
□
  0
TEXT
  8
4-2
 62
     7
  7
STANDARD
 10
34899.9563
 20
15641.2247
 40
320
 41
1
 50
90
  1
数字
  0
TEXT
  8
4-2
 62
     7
  7
STANDARD
 10
34189.9563
 20
15721.2247
 40
320
 41
0.5
 50
90
  1
CVT
  0
TEXT
  8
4-2
 62
     7
  7
STANDARD
 10
55489.9563
 20
15721.2247
 40
320
 41
0.5
 50
90
  1
CVT
  0
TEXT
  8
4-2
 62
     7
  7
STANDARD
 10
56199.9563
 20
15641.2247
 40
320
 41
1
 50
90
  1
数字
  0
TEXT
  8
4-2
 62
     7
  7
STANDARD
 10
55948.5378
 20
16425.9569
 40
200
 41
1
 50
90
  1
□
  0
TEXT
  8
4-2
 62
     7
  7
STANDARD
 10
54069.9563
 20
15721.2247
 40
320
 41
0.5
 50
90
  1
CVT
  0
TEXT
  8
4-2
 62
     7
  7
STANDARD
 10
54779.9563
 20
15641.2247
 40
320
 41
1
 50
90
  1
数字
  0
TEXT
  8
4-2
 62
     7
  7
STANDARD
 10
54528.5378
 20
16425.9569
 40
200
 41
1
 50
90
  1
□
  0
TEXT
  8
4-2
 62
     7
  7
STANDARD
 10
52649.9563
 20
15721.2247
 40
320
 41
0.5
 50
90
  1
CVT
  0
TEXT
  8
4-2
 62
     7
  7
STANDARD
 10
53359.9563
 20
15641.2247
 40
320
 41
1
 50
90
  1
数字
  0
TEXT
  8
4-2
 62
     7
  7
STANDARD
 10
53108.5378
 20
16425.9569
 40
200
 41
1
 50
90
  1
□
  0
TEXT
  8
4-2
 62
     7
  7
STANDARD
 10
51229.9563
 20
15721.2247
 40
320
 41
0.5
 50
90
  1
CVT
  0
TEXT
  8
4-2
 62
     7
  7
STANDARD
 10
51939.9563
 20
15641.2247
 40
320
 41
1
 50
90
  1
数字
  0
TEXT
  8
4-2
 62
     7
  7
STANDARD
 10
51688.5378
 20
16425.9569
 40
200
 41
1
 50
90
  1
□
  0
TEXT
  8
4-2
 62
     7
  7
STANDARD
 10
49809.9563
 20
15721.2247
 40
320
 41
0.5
 50
90
  1
CVT
  0
TEXT
  8
4-2
 62
     7
  7
STANDARD
 10
50519.9563
 20
15641.2247
 40
320
 41
1
 50
90
  1
数字
  0
TEXT
  8
4-2
 62
     7
  7
STANDARD
 10
50268.5378
 20
16425.9569
 40
200
 41
1
 50
90
  1
□
  0
TEXT
  8
4-2
 62
     7
  7
STANDARD
 10
46969.9563
 20
15721.2247
 40
320
 41
0.5
 50
90
  1
CVT
  0
TEXT
  8
4-2
 62
     7
  7
STANDARD
 10
47679.9563
 20
15641.2247
 40
320
 41
1
 50
90
  1
数字
  0
TEXT
  8
4-2
 62
     7
  7
STANDARD
 10
47428.5378
 20
16425.9569
 40
200
 41
1
 50
90
  1
□
  0
TEXT
  8
4-2
 62
     7
  7
STANDARD
 10
45549.9563
 20
15721.2247
 40
320
 41
0.5
 50
90
  1
CVT
  0
TEXT
  8
4-2
 62
     7
  7
STANDARD
 10
46259.9563
 20
15641.2247
 40
320
 41
1
 50
90
  1
数字
  0
TEXT
  8
4-2
 62
     7
  7
STANDARD
 10
46008.5378
 20
16425.9569
 40
200
 41
1
 50
90
  1
□
  0
TEXT
  8
4-2
 62
     7
  7
STANDARD
 10
44129.9563
 20
15721.2247
 40
320
 41
0.5
 50
90
  1
CVT
  0
TEXT
  8
4-2
 62
     7
  7
STANDARD
 10
44839.9563
 20
15641.2247
 40
320
 41
1
 50
90
  1
数字
  0
TEXT
  8
4-2
 62
     7
  7
STANDARD
 10
44588.5378
 20
16425.9569
 40
200
 41
1
 50
90
  1
□
  0
TEXT
  8
4-2
 62
     7
  7
STANDARD
 10
42709.9563
 20
15721.2247
 40
320
 41
0.5
 50
90
  1
CVT
  0
TEXT
  8
4-2
 62
     7
  7
STANDARD
 10
43419.9563
 20
15641.2247
 40
320
 41
1
 50
90
  1
数字
  0
TEXT
  8
4-2
 62
     7
  7
STANDARD
 10
43168.5378
 20
16425.9569
 40
200
 41
1
 50
90
  1
□
  0
TEXT
  8
4-2
 62
     7
  7
STANDARD
 10
41289.9563
 20
15721.2247
 40
320
 41
0.5
 50
90
  1
CVT
  0
TEXT
  8
4-2
 62
     7
  7
STANDARD
 10
41999.9563
 20
15641.2247
 40
320
 41
1
 50
90
  1
数字
  0
TEXT
  8
4-2
 62
     7
  7
STANDARD
 10
41748.5378
 20
16425.9569
 40
200
 41
1
 50
90
  1
□
  0
TEXT
  8
4-2
 62
     7
  7
STANDARD
 10
39869.9563
 20
15721.2247
 40
320
 41
0.5
 50
90
  1
CVT
  0
TEXT
  8
4-2
 62
     7
  7
STANDARD
 10
40579.9563
 20
15641.2247
 40
320
 41
1
 50
90
  1
数字
  0
TEXT
  8
4-2
 62
     7
  7
STANDARD
 10
40328.5378
 20
16425.9569
 40
200
 41
1
 50
90
  1
□
  0
TEXT
  8
4-2
 62
     7
  7
STANDARD
 10
38449.9563
 20
15721.2247
 40
320
 41
0.5
 50
90
  1
CVT
  0
TEXT
  8
4-2
 62
     7
  7
STANDARD
 10
39159.9563
 20
15641.2247
 40
320
 41
1
 50
90
  1
数字
  0
TEXT
  8
4-2
 62
     7
  7
STANDARD
 10
38908.5378
 20
16425.9569
 40
200
 41
1
 50
90
  1
□
  0
TEXT
  8
4-2
 62
     7
  7
STANDARD
 10
36068.5378
 20
16425.9569
 40
200
 41
1
 50
90
  1
□
  0
TEXT
  8
4-2
 62
     7
  7
STANDARD
 10
36319.9563
 20
15641.2247
 40
320
 41
1
 50
90
  1
数字
  0
TEXT
  8
4-2
 62
     7
  7
STANDARD
 10
35609.9563
 20
15721.2247
 40
320
 41
0.5
 50
90
  1
CVT
  0
TEXT
  8
4-2
 62
     7
  7
STANDARD
 10
57368.5378
 20
16425.9569
 40
200
 41
1
 50
90
  1
□
  0
TEXT
  8
4-2
 62
     7
  7
STANDARD
 10
57619.9563
 20
15641.2247
 40
320
 41
1
 50
90
  1
数字
  0
TEXT
  8
4-2
 62
     7
  7
STANDARD
 10
56909.9563
 20
15721.2247
 40
320
 41
0.5
 50
90
  1
CVT
  0
TEXT
  8
4-2
 62
     7
  7
STANDARD
 10
58788.5378
 20
16425.9569
 40
200
 41
1
 50
90
  1
□
  0
TEXT
  8
4-2
 62
     7
  7
STANDARD
 10
59039.9563
 20
15641.2247
 40
320
 41
1
 50
90
  1
数字
  0
TEXT
  8
4-2
 62
     7
  7
STANDARD
 10
58329.9563
 20
15721.2247
 40
320
 41
0.5
 50
90
  1
CVT
  0
TEXT
  8
4-2
 62
     7
  7
STANDARD
 10
63048.5378
 20
16425.9569
 40
200
 41
1
 50
90
  1
□
  0
TEXT
  8
4-2
 62
     7
  7
STANDARD
 10
63299.9563
 20
15641.2247
 40
320
 41
1
 50
90
  1
数字
  0
TEXT
  8
4-2
 62
     7
  7
STANDARD
 10
62589.9563
 20
15721.2247
 40
320
 41
0.5
 50
90
  1
CVT
  0
TEXT
  8
4-2
 62
     7
  7
STANDARD
 10
64468.5378
 20
16425.9569
 40
200
 41
1
 50
90
  1
□
  0
TEXT
  8
4-2
 62
     7
  7
STANDARD
 10
64719.9563
 20
15641.2247
 40
320
 41
1
 50
90
  1
数字
  0
TEXT
  8
4-2
 62
     7
  7
STANDARD
 10
64009.9563
 20
15721.2247
 40
320
 41
0.5
 50
90
  1
CVT
  0
TEXT
  8
4-2
 62
     7
  7
STANDARD
 10
65888.5378
 20
16425.9569
 40
200
 41
1
 50
90
  1
□
  0
TEXT
  8
4-2
 62
     7
  7
STANDARD
 10
66139.9563
 20
15641.2247
 40
320
 41
1
 50
90
  1
数字
  0
TEXT
  8
4-2
 62
     7
  7
STANDARD
 10
65429.9563
 20
15721.2247
 40
320
 41
0.5
 50
90
  1
CVT
  0
TEXT
  8
4-2
 62
     7
  7
STANDARD
 10
67308.5378
 20
16425.9569
 40
200
 41
1
 50
90
  1
□
  0
TEXT
  8
4-2
 62
     7
  7
STANDARD
 10
67559.9563
 20
15641.2247
 40
320
 41
1
 50
90
  1
数字
  0
TEXT
  8
4-2
 62
     7
  7
STANDARD
 10
66849.9563
 20
15721.2247
 40
320
 41
0.5
 50
90
  1
CVT
  0
TEXT
  8
4-2
 62
     7
  7
STANDARD
 10
68728.5378
 20
16425.9569
 40
200
 41
1
 50
90
  1
□
  0
TEXT
  8
4-2
 62
     7
  7
STANDARD
 10
68979.9563
 20
15641.2247
 40
320
 41
1
 50
90
  1
数字
  0
TEXT
  8
4-2
 62
     7
  7
STANDARD
 10
68269.9563
 20
15721.2247
 40
320
 41
0.5
 50
90
  1
CVT
  0
TEXT
  8
4-2
 62
     7
  7
STANDARD
 10
14309.9563
 20
13422.8574
 40
320
 41
1
 50
90
  1
　　  kVA
  0
TEXT
  8
4-2
 62
     7
  7
STANDARD
 10
15019.9563
 20
13822.8574
 40
320
 41
1
 50
90
  1
数字
  0
TEXT
  8
4-2
 62
     7
  7
STANDARD
 10
14654.9959
 20
9806.5014
 40
320
 41
1
 50
90
  1
負荷名称
  0
TEXT
  8
4-2
 62
     7
  7
STANDARD
 10
14664.9563
 20
8756.5975
 40
320
 41
1
 50
90
  1
№
  0
TEXT
  8
4-2
 62
     7
  7
STANDARD
 10
15434.9563
 20
7746.3934
 40
320
 41
1
 50
0
  1
低圧電灯盤　№1
  0
TEXT
  8
4-2
 62
     7
  7
STANDARD
 10
16084.9563
 20
8756.5975
 40
320
 41
1
 50
90
  1
№
  0
TEXT
  8
4-2
 62
     7
  7
STANDARD
 10
16074.9959
 20
9806.5014
 40
320
 41
1
 50
90
  1
負荷名称
  0
TEXT
  8
4-2
 62
     7
  7
STANDARD
 10
16439.9563
 20
13822.8574
 40
320
 41
1
 50
90
  1
数字
  0
TEXT
  8
4-2
 62
     7
  7
STANDARD
 10
15729.9563
 20
13422.8574
 40
320
 41
1
 50
90
  1
　　  kVA
  0
TEXT
  8
4-2
 62
     7
  7
STANDARD
 10
17504.9563
 20
8756.5975
 40
320
 41
1
 50
90
  1
№
  0
TEXT
  8
4-2
 62
     7
  7
STANDARD
 10
17494.9959
 20
9806.5014
 40
320
 41
1
 50
90
  1
負荷名称
  0
TEXT
  8
4-2
 62
     7
  7
STANDARD
 10
17859.9563
 20
13822.8574
 40
320
 41
1
 50
90
  1
数字
  0
TEXT
  8
4-2
 62
     7
  7
STANDARD
 10
17149.9563
 20
13422.8574
 40
320
 41
1
 50
90
  1
　　  kVA
  0
TEXT
  8
4-2
 62
     7
  7
STANDARD
 10
18924.9563
 20
8756.5975
 40
320
 41
1
 50
90
  1
№
  0
TEXT
  8
4-2
 62
     7
  7
STANDARD
 10
18914.9959
 20
9806.5014
 40
320
 41
1
 50
90
  1
負荷名称
  0
TEXT
  8
4-2
 62
     7
  7
STANDARD
 10
19279.9563
 20
13822.8574
 40
320
 41
1
 50
90
  1
数字
  0
TEXT
  8
4-2
 62
     7
  7
STANDARD
 10
18569.9563
 20
13422.8574
 40
320
 41
1
 50
90
  1
　　  kVA
  0
TEXT
  8
4-2
 62
     7
  7
STANDARD
 10
20344.9563
 20
8756.5975
 40
320
 41
1
 50
90
  1
№
  0
TEXT
  8
4-2
 62
     7
  7
STANDARD
 10
20334.9959
 20
9806.5014
 40
320
 41
1
 50
90
  1
負荷名称
  0
TEXT
  8
4-2
 62
     7
  7
STANDARD
 10
20699.9563
 20
13822.8574
 40
320
 41
1
 50
90
  1
数字
  0
TEXT
  8
4-2
 62
     7
  7
STANDARD
 10
19989.9563
 20
13422.8574
 40
320
 41
1
 50
90
  1
　　  kVA
  0
TEXT
  8
4-2
 62
     7
  7
STANDARD
 10
21764.9563
 20
8756.5975
 40
320
 41
1
 50
90
  1
№
  0
TEXT
  8
4-2
 62
     7
  7
STANDARD
 10
21754.9959
 20
9806.5014
 40
320
 41
1
 50
90
  1
負荷名称
  0
TEXT
  8
4-2
 62
     7
  7
STANDARD
 10
22119.9563
 20
13822.8574
 40
320
 41
1
 50
90
  1
数字
  0
TEXT
  8
4-2
 62
     7
  7
STANDARD
 10
21409.9563
 20
13422.8574
 40
320
 41
1
 50
90
  1
　　  kVA
  0
TEXT
  8
4-2
 62
     7
  7
STANDARD
 10
23184.9563
 20
8756.5975
 40
320
 41
1
 50
90
  1
№
  0
TEXT
  8
4-2
 62
     7
  7
STANDARD
 10
23174.9959
 20
9806.5014
 40
320
 41
1
 50
90
  1
負荷名称
  0
TEXT
  8
4-2
 62
     7
  7
STANDARD
 10
23539.9563
 20
13822.8574
 40
320
 41
1
 50
90
  1
数字
  0
TEXT
  8
4-2
 62
     7
  7
STANDARD
 10
22829.9563
 20
13422.8574
 40
320
 41
1
 50
90
  1
　　  kVA
  0
TEXT
  8
4-2
 62
     7
  7
STANDARD
 10
26024.9563
 20
8756.5975
 40
320
 41
1
 50
90
  1
№
  0
TEXT
  8
4-2
 62
     7
  7
STANDARD
 10
26014.9959
 20
9806.5014
 40
320
 41
1
 50
90
  1
負荷名称
  0
TEXT
  8
4-2
 62
     7
  7
STANDARD
 10
26379.9563
 20
13822.8574
 40
320
 41
1
 50
90
  1
数字
  0
TEXT
  8
4-2
 62
     7
  7
STANDARD
 10
25669.9563
 20
13422.8574
 40
320
 41
1
 50
90
  1
　　  kVA
  0
TEXT
  8
4-2
 62
     7
  7
STANDARD
 10
38449.9563
 20
13422.8574
 40
320
 41
1
 50
90
  1
　　  kVA
  0
TEXT
  8
4-2
 62
     7
  7
STANDARD
 10
39159.9563
 20
13822.8574
 40
320
 41
1
 50
90
  1
数字
  0
TEXT
  8
4-2
 62
     7
  7
STANDARD
 10
38794.9959
 20
9806.5014
 40
320
 41
1
 50
90
  1
負荷名称
  0
TEXT
  8
4-2
 62
     7
  7
STANDARD
 10
38804.9563
 20
8756.5975
 40
320
 41
1
 50
90
  1
№
  0
TEXT
  8
4-2
 62
     7
  7
STANDARD
 10
35609.9563
 20
13422.8574
 40
320
 41
1
 50
90
  1
　　  kVA
  0
TEXT
  8
4-2
 62
     7
  7
STANDARD
 10
36319.9563
 20
13822.8574
 40
320
 41
1
 50
90
  1
数字
  0
TEXT
  8
4-2
 62
     7
  7
STANDARD
 10
35954.9959
 20
9806.5014
 40
320
 41
1
 50
90
  1
負荷名称
  0
TEXT
  8
4-2
 62
     7
  7
STANDARD
 10
35964.9563
 20
8756.5975
 40
320
 41
1
 50
90
  1
№
  0
TEXT
  8
4-2
 62
     7
  7
STANDARD
 10
34189.9563
 20
13422.8574
 40
320
 41
1
 50
90
  1
　　  kVA
  0
TEXT
  8
4-2
 62
     7
  7
STANDARD
 10
34899.9563
 20
13822.8574
 40
320
 41
1
 50
90
  1
数字
  0
TEXT
  8
4-2
 62
     7
  7
STANDARD
 10
34534.9959
 20
9806.5014
 40
320
 41
1
 50
90
  1
負荷名称
  0
TEXT
  8
4-2
 62
     7
  7
STANDARD
 10
34544.9563
 20
8756.5975
 40
320
 41
1
 50
90
  1
№
  0
TEXT
  8
4-2
 62
     7
  7
STANDARD
 10
32769.9563
 20
13422.8574
 40
320
 41
1
 50
90
  1
　　  kVA
  0
TEXT
  8
4-2
 62
     7
  7
STANDARD
 10
33479.9563
 20
13822.8574
 40
320
 41
1
 50
90
  1
数字
  0
TEXT
  8
4-2
 62
     7
  7
STANDARD
 10
33114.9959
 20
9806.5014
 40
320
 41
1
 50
90
  1
負荷名称
  0
TEXT
  8
4-2
 62
     7
  7
STANDARD
 10
33124.9563
 20
8756.5975
 40
320
 41
1
 50
90
  1
№
  0
TEXT
  8
4-2
 62
     7
  7
STANDARD
 10
31349.9563
 20
13422.8574
 40
320
 41
1
 50
90
  1
　　  kVA
  0
TEXT
  8
4-2
 62
     7
  7
STANDARD
 10
32059.9563
 20
13822.8574
 40
320
 41
1
 50
90
  1
数字
  0
TEXT
  8
4-2
 62
     7
  7
STANDARD
 10
31694.9959
 20
9806.5014
 40
320
 41
1
 50
90
  1
負荷名称
  0
TEXT
  8
4-2
 62
     7
  7
STANDARD
 10
31704.9563
 20
8756.5975
 40
320
 41
1
 50
90
  1
№
  0
TEXT
  8
4-2
 62
     7
  7
STANDARD
 10
29929.9563
 20
13422.8574
 40
320
 41
1
 50
90
  1
　　  kVA
  0
TEXT
  8
4-2
 62
     7
  7
STANDARD
 10
30639.9563
 20
13822.8574
 40
320
 41
1
 50
90
  1
数字
  0
TEXT
  8
4-2
 62
     7
  7
STANDARD
 10
30274.9959
 20
9806.5014
 40
320
 41
1
 50
90
  1
負荷名称
  0
TEXT
  8
4-2
 62
     7
  7
STANDARD
 10
30284.9563
 20
8756.5975
 40
320
 41
1
 50
90
  1
№
  0
TEXT
  8
4-2
 62
     7
  7
STANDARD
 10
28509.9563
 20
13422.8574
 40
320
 41
1
 50
90
  1
　　  kVA
  0
TEXT
  8
4-2
 62
     7
  7
STANDARD
 10
29219.9563
 20
13822.8574
 40
320
 41
1
 50
90
  1
数字
  0
TEXT
  8
4-2
 62
     7
  7
STANDARD
 10
28854.9959
 20
9806.5014
 40
320
 41
1
 50
90
  1
負荷名称
  0
TEXT
  8
4-2
 62
     7
  7
STANDARD
 10
28864.9563
 20
8756.5975
 40
320
 41
1
 50
90
  1
№
  0
TEXT
  8
4-2
 62
     7
  7
STANDARD
 10
27444.9563
 20
8756.5975
 40
320
 41
1
 50
90
  1
№
  0
TEXT
  8
4-2
 62
     7
  7
STANDARD
 10
27434.9959
 20
9806.5014
 40
320
 41
1
 50
90
  1
負荷名称
  0
TEXT
  8
4-2
 62
     7
  7
STANDARD
 10
27799.9563
 20
13822.8574
 40
320
 41
1
 50
90
  1
数字
  0
TEXT
  8
4-2
 62
     7
  7
STANDARD
 10
27089.9563
 20
13422.8574
 40
320
 41
1
 50
90
  1
　　  kVA
  0
TEXT
  8
4-2
 62
     7
  7
STANDARD
 10
51229.9563
 20
13422.8574
 40
320
 41
1
 50
90
  1
　　  kVA
  0
TEXT
  8
4-2
 62
     7
  7
STANDARD
 10
51939.9563
 20
13822.8574
 40
320
 41
1
 50
90
  1
数字
  0
TEXT
  8
4-2
 62
     7
  7
STANDARD
 10
51574.9959
 20
9806.5014
 40
320
 41
1
 50
90
  1
負荷名称
  0
TEXT
  8
4-2
 62
     7
  7
STANDARD
 10
51584.9563
 20
8756.5975
 40
320
 41
1
 50
90
  1
№
  0
TEXT
  8
4-2
 62
     7
  7
STANDARD
 10
49809.9563
 20
13422.8574
 40
320
 41
1
 50
90
  1
　　  kVA
  0
TEXT
  8
4-2
 62
     7
  7
STANDARD
 10
50519.9563
 20
13822.8574
 40
320
 41
1
 50
90
  1
数字
  0
TEXT
  8
4-2
 62
     7
  7
STANDARD
 10
50154.9959
 20
9806.5014
 40
320
 41
1
 50
90
  1
負荷名称
  0
TEXT
  8
4-2
 62
     7
  7
STANDARD
 10
50164.9563
 20
8756.5975
 40
320
 41
1
 50
90
  1
№
  0
TEXT
  8
4-2
 62
     7
  7
STANDARD
 10
46969.9563
 20
13422.8574
 40
320
 41
1
 50
90
  1
　　  kVA
  0
TEXT
  8
4-2
 62
     7
  7
STANDARD
 10
47679.9563
 20
13822.8574
 40
320
 41
1
 50
90
  1
数字
  0
TEXT
  8
4-2
 62
     7
  7
STANDARD
 10
47314.9959
 20
9806.5014
 40
320
 41
1
 50
90
  1
負荷名称
  0
TEXT
  8
4-2
 62
     7
  7
STANDARD
 10
47324.9563
 20
8756.5975
 40
320
 41
1
 50
90
  1
№
  0
TEXT
  8
4-2
 62
     7
  7
STANDARD
 10
45549.9563
 20
13422.8574
 40
320
 41
1
 50
90
  1
　　  kVA
  0
TEXT
  8
4-2
 62
     7
  7
STANDARD
 10
46259.9563
 20
13822.8574
 40
320
 41
1
 50
90
  1
数字
  0
TEXT
  8
4-2
 62
     7
  7
STANDARD
 10
45894.9959
 20
9806.5014
 40
320
 41
1
 50
90
  1
負荷名称
  0
TEXT
  8
4-2
 62
     7
  7
STANDARD
 10
45904.9563
 20
8756.5975
 40
320
 41
1
 50
90
  1
№
  0
TEXT
  8
4-2
 62
     7
  7
STANDARD
 10
44129.9563
 20
13422.8574
 40
320
 41
1
 50
90
  1
　　  kVA
  0
TEXT
  8
4-2
 62
     7
  7
STANDARD
 10
44839.9563
 20
13822.8574
 40
320
 41
1
 50
90
  1
数字
  0
TEXT
  8
4-2
 62
     7
  7
STANDARD
 10
44474.9959
 20
9806.5014
 40
320
 41
1
 50
90
  1
負荷名称
  0
TEXT
  8
4-2
 62
     7
  7
STANDARD
 10
44484.9563
 20
8756.5975
 40
320
 41
1
 50
90
  1
№
  0
TEXT
  8
4-2
 62
     7
  7
STANDARD
 10
42709.9563
 20
13422.8574
 40
320
 41
1
 50
90
  1
　　  kVA
  0
TEXT
  8
4-2
 62
     7
  7
STANDARD
 10
43419.9563
 20
13822.8574
 40
320
 41
1
 50
90
  1
数字
  0
TEXT
  8
4-2
 62
     7
  7
STANDARD
 10
43054.9959
 20
9806.5014
 40
320
 41
1
 50
90
  1
負荷名称
  0
TEXT
  8
4-2
 62
     7
  7
STANDARD
 10
43064.9563
 20
8756.5975
 40
320
 41
1
 50
90
  1
№
  0
TEXT
  8
4-2
 62
     7
  7
STANDARD
 10
41289.9563
 20
13422.8574
 40
320
 41
1
 50
90
  1
　　  kVA
  0
TEXT
  8
4-2
 62
     7
  7
STANDARD
 10
41999.9563
 20
13822.8574
 40
320
 41
1
 50
90
  1
数字
  0
TEXT
  8
4-2
 62
     7
  7
STANDARD
 10
41634.9959
 20
9806.5014
 40
320
 41
1
 50
90
  1
負荷名称
  0
TEXT
  8
4-2
 62
     7
  7
STANDARD
 10
41644.9563
 20
8756.5975
 40
320
 41
1
 50
90
  1
№
  0
TEXT
  8
4-2
 62
     7
  7
STANDARD
 10
40224.9563
 20
8756.5975
 40
320
 41
1
 50
90
  1
№
  0
TEXT
  8
4-2
 62
     7
  7
STANDARD
 10
40214.9959
 20
9806.5014
 40
320
 41
1
 50
90
  1
負荷名称
  0
TEXT
  8
4-2
 62
     7
  7
STANDARD
 10
40579.9563
 20
13822.8574
 40
320
 41
1
 50
90
  1
数字
  0
TEXT
  8
4-2
 62
     7
  7
STANDARD
 10
39869.9563
 20
13422.8574
 40
320
 41
1
 50
90
  1
　　  kVA
  0
TEXT
  8
4-2
 62
     7
  7
STANDARD
 10
64009.9563
 20
13422.8574
 40
320
 41
1
 50
90
  1
　　  kVA
  0
TEXT
  8
4-2
 62
     7
  7
STANDARD
 10
64719.9563
 20
13822.8574
 40
320
 41
1
 50
90
  1
数字
  0
TEXT
  8
4-2
 62
     7
  7
STANDARD
 10
64354.9959
 20
9806.5014
 40
320
 41
1
 50
90
  1
負荷名称
  0
TEXT
  8
4-2
 62
     7
  7
STANDARD
 10
64364.9563
 20
8756.5975
 40
320
 41
1
 50
90
  1
№
  0
TEXT
  8
4-2
 62
     7
  7
STANDARD
 10
62589.9563
 20
13422.8574
 40
320
 41
1
 50
90
  1
　　  kVA
  0
TEXT
  8
4-2
 62
     7
  7
STANDARD
 10
63299.9563
 20
13822.8574
 40
320
 41
1
 50
90
  1
数字
  0
TEXT
  8
4-2
 62
     7
  7
STANDARD
 10
62934.9959
 20
9806.5014
 40
320
 41
1
 50
90
  1
負荷名称
  0
TEXT
  8
4-2
 62
     7
  7
STANDARD
 10
62944.9563
 20
8756.5975
 40
320
 41
1
 50
90
  1
№
  0
TEXT
  8
4-2
 62
     7
  7
STANDARD
 10
58329.9563
 20
13422.8574
 40
320
 41
1
 50
90
  1
　　  kVA
  0
TEXT
  8
4-2
 62
     7
  7
STANDARD
 10
59039.9563
 20
13822.8574
 40
320
 41
1
 50
90
  1
数字
  0
TEXT
  8
4-2
 62
     7
  7
STANDARD
 10
58674.9959
 20
9806.5014
 40
320
 41
1
 50
90
  1
負荷名称
  0
TEXT
  8
4-2
 62
     7
  7
STANDARD
 10
58684.9563
 20
8756.5975
 40
320
 41
1
 50
90
  1
№
  0
TEXT
  8
4-2
 62
     7
  7
STANDARD
 10
56909.9563
 20
13422.8574
 40
320
 41
1
 50
90
  1
　　  kVA
  0
TEXT
  8
4-2
 62
     7
  7
STANDARD
 10
57619.9563
 20
13822.8574
 40
320
 41
1
 50
90
  1
数字
  0
TEXT
  8
4-2
 62
     7
  7
STANDARD
 10
57254.9959
 20
9806.5014
 40
320
 41
1
 50
90
  1
負荷名称
  0
TEXT
  8
4-2
 62
     7
  7
STANDARD
 10
57264.9563
 20
8756.5975
 40
320
 41
1
 50
90
  1
№
  0
TEXT
  8
4-2
 62
     7
  7
STANDARD
 10
55489.9563
 20
13422.8574
 40
320
 41
1
 50
90
  1
　　  kVA
  0
TEXT
  8
4-2
 62
     7
  7
STANDARD
 10
56199.9563
 20
13822.8574
 40
320
 41
1
 50
90
  1
数字
  0
TEXT
  8
4-2
 62
     7
  7
STANDARD
 10
55834.9959
 20
9806.5014
 40
320
 41
1
 50
90
  1
負荷名称
  0
TEXT
  8
4-2
 62
     7
  7
STANDARD
 10
55844.9563
 20
8756.5975
 40
320
 41
1
 50
90
  1
№
  0
TEXT
  8
4-2
 62
     7
  7
STANDARD
 10
54069.9563
 20
13422.8574
 40
320
 41
1
 50
90
  1
　　  kVA
  0
TEXT
  8
4-2
 62
     7
  7
STANDARD
 10
54779.9563
 20
13822.8574
 40
320
 41
1
 50
90
  1
数字
  0
TEXT
  8
4-2
 62
     7
  7
STANDARD
 10
54414.9959
 20
9806.5014
 40
320
 41
1
 50
90
  1
負荷名称
  0
TEXT
  8
4-2
 62
     7
  7
STANDARD
 10
54424.9563
 20
8756.5975
 40
320
 41
1
 50
90
  1
№
  0
TEXT
  8
4-2
 62
     7
  7
STANDARD
 10
53004.9563
 20
8756.5975
 40
320
 41
1
 50
90
  1
№
  0
TEXT
  8
4-2
 62
     7
  7
STANDARD
 10
52994.9959
 20
9806.5014
 40
320
 41
1
 50
90
  1
負荷名称
  0
TEXT
  8
4-2
 62
     7
  7
STANDARD
 10
53359.9563
 20
13822.8574
 40
320
 41
1
 50
90
  1
数字
  0
TEXT
  8
4-2
 62
     7
  7
STANDARD
 10
52649.9563
 20
13422.8574
 40
320
 41
1
 50
90
  1
　　  kVA
  0
TEXT
  8
4-2
 62
     7
  7
STANDARD
 10
65784.9563
 20
8756.5975
 40
320
 41
1
 50
90
  1
№
  0
TEXT
  8
4-2
 62
     7
  7
STANDARD
 10
65774.9959
 20
9806.5014
 40
320
 41
1
 50
90
  1
負荷名称
  0
TEXT
  8
4-2
 62
     7
  7
STANDARD
 10
66139.9563
 20
13822.8574
 40
320
 41
1
 50
90
  1
数字
  0
TEXT
  8
4-2
 62
     7
  7
STANDARD
 10
65429.9563
 20
13422.8574
 40
320
 41
1
 50
90
  1
　　  kVA
  0
TEXT
  8
4-2
 62
     7
  7
STANDARD
 10
67204.9563
 20
8756.5975
 40
320
 41
1
 50
90
  1
№
  0
TEXT
  8
4-2
 62
     7
  7
STANDARD
 10
67194.9959
 20
9806.5014
 40
320
 41
1
 50
90
  1
負荷名称
  0
TEXT
  8
4-2
 62
     7
  7
STANDARD
 10
67559.9563
 20
13822.8574
 40
320
 41
1
 50
90
  1
数字
  0
TEXT
  8
4-2
 62
     7
  7
STANDARD
 10
66849.9563
 20
13422.8574
 40
320
 41
1
 50
90
  1
　　  kVA
  0
TEXT
  8
4-2
 62
     7
  7
STANDARD
 10
68624.9563
 20
8756.5975
 40
320
 41
1
 50
90
  1
№
  0
TEXT
  8
4-2
 62
     7
  7
STANDARD
 10
68614.9959
 20
9806.5014
 40
320
 41
1
 50
90
  1
負荷名称
  0
TEXT
  8
4-2
 62
     7
  7
STANDARD
 10
68979.9563
 20
13822.8574
 40
320
 41
1
 50
90
  1
数字
  0
TEXT
  8
4-2
 62
     7
  7
STANDARD
 10
68269.9563
 20
13422.8574
 40
320
 41
1
 50
90
  1
　　  kVA
  0
TEXT
  8
4-2
 62
     7
  7
STANDARD
 10
65406.3697
 20
45590.3955
 40
320
 41
1
 50
0
  1
４．使用する計器類により、VT及びCTの容量計算を行う。
  0
TEXT
  8
4-2
 62
     7
  7
STANDARD
 10
65406.3697
 20
44950.3955
 40
320
 41
1
 50
0
  1
５．アンカーボルト等の計算は「建築設備耐震設計・施工指針」（２００５年版）による。
  0
TEXT
  8
4-2
 62
     7
  7
STANDARD
 10
65406.3697
 20
44630.3955
 40
320
 41
0.5
 50
0
  1
    
  0
TEXT
  8
4-2
 62
     7
  7
STANDARD
 10
65406.3697
 20
44310.3955
 40
320
 41
1
 50
0
  1
６．表示灯は全てLEDとする。
  0
TEXT
  8
4-2
 62
     7
  7
STANDARD
 10
65406.3697
 20
43990.3955
 40
320
 41
0.5
 50
0
  1
    
  0
TEXT
  8
4-2
 62
     7
  7
STANDARD
 10
65406.3697
 20
43670.3955
 40
320
 41
1
 50
0
  1
７．各ドアースイッチと連動にて盤内照明を点灯可能とする。
  0
TEXT
  8
4-2
 62
     7
  7
STANDARD
 10
65406.3697
 20
43030.3955
 40
320
 41
1
 50
0
  1
８．扉には、内部事故が外部へ波及しないようハンドルと連動する上下の押さえ金具を設ける。
  0
TEXT
  8
4-2
 62
     7
  7
STANDARD
 10
65406.3697
 20
42390.3955
 40
320
 41
1
 50
0
  1
９．他設備の現地制御盤 MCCB と本配電盤のMCCBは保護協調等を計り、特性データ表を提出する。 
  0
ENDSEC
  0
EOF
